  0
SECTION
  2
HEADER
  9
$ACADVER
  1
AC1015
  9
$ACADMAINTVER
 70
    20
  9
$DWGCODEPAGE
  3
ANSI_932
  9
$INSBASE
 10
0.0
 20
0.0
 30
0.0
  9
$EXTMIN
 10
0.0000009488712749
 20
-0.0000001251305548
 30
0.0
  9
$EXTMAX
 10
1470.000088916976
 20
1039.500062015474
 30
0.0
  9
$LIMMIN
 10
0.0
 20
0.0
  9
$LIMMAX
 10
420.0
 20
297.0
  9
$ORTHOMODE
 70
     0
  9
$REGENMODE
 70
     1
  9
$FILLMODE
 70
     1
  9
$QTEXTMODE
 70
     0
  9
$MIRRTEXT
 70
     1
  9
$LTSCALE
 40
1.0
  9
$ATTMODE
 70
     1
  9
$TEXTSIZE
 40
4.0
  9
$TRACEWID
 40
1.0
  9
$TEXTSTYLE
  7
ULVAC
  9
$CLAYER
  8
PROFILE2
  9
$CELTYPE
  6
ByLayer
  9
$CECOLOR
 62
   256
  9
$CELTSCALE
 40
0.5
  9
$DISPSILH
 70
     0
  9
$DIMSCALE
 40
1.0
  9
$DIMASZ
 40
2.9
  9
$DIMEXO
 40
1.269999980926513
  9
$DIMDLI
 40
10.0
  9
$DIMRND
 40
0.005
  9
$DIMDLE
 40
0.0
  9
$DIMEXE
 40
1.200000047683715
  9
$DIMTP
 40
0.0
  9
$DIMTM
 40
0.0
  9
$DIMTXT
 40
4.0
  9
$DIMCEN
 40
0.0
  9
$DIMTSZ
 40
0.0
  9
$DIMTOL
 70
     0
  9
$DIMLIM
 70
     0
  9
$DIMTIH
 70
     0
  9
$DIMTOH
 70
     0
  9
$DIMSE1
 70
     0
  9
$DIMSE2
 70
     0
  9
$DIMTAD
 70
     1
  9
$DIMZIN
 70
     9
  9
$DIMBLK
  1
Open30
  9
$DIMASO
 70
     1
  9
$DIMSHO
 70
     1
  9
$DIMPOST
  1

  9
$DIMAPOST
  1

  9
$DIMALT
 70
     0
  9
$DIMALTD
 70
     4
  9
$DIMALTF
 40
0.03937007874016
  9
$DIMLFAC
 40
1.0
  9
$DIMTOFL
 70
     1
  9
$DIMTVP
 40
0.0
  9
$DIMTIX
 70
     0
  9
$DIMSOXD
 70
     0
  9
$DIMSAH
 70
     0
  9
$DIMBLK1
  1

  9
$DIMBLK2
  1

  9
$DIMSTYLE
  2
ULVAC
  9
$DIMCLRD
 70
     0
  9
$DIMCLRE
 70
     0
  9
$DIMCLRT
 70
     0
  9
$DIMTFAC
 40
0.75
  9
$DIMGAP
 40
1.0
  9
$DIMJUST
 70
     0
  9
$DIMSD1
 70
     0
  9
$DIMSD2
 70
     0
  9
$DIMTOLJ
 70
     1
  9
$DIMTZIN
 70
     8
  9
$DIMALTZ
 70
     0
  9
$DIMALTTZ
 70
     0
  9
$DIMUPT
 70
     1
  9
$DIMDEC
 70
     2
  9
$DIMTDEC
 70
     2
  9
$DIMALTU
 70
     2
  9
$DIMALTTD
 70
     4
  9
$DIMTXSTY
  7
ULVAC
  9
$DIMAUNIT
 70
     0
  9
$DIMADEC
 70
     2
  9
$DIMALTRND
 40
0.0
  9
$DIMAZIN
 70
     2
  9
$DIMDSEP
 70
    46
  9
$DIMATFIT
 70
     3
  9
$DIMFRAC
 70
     0
  9
$DIMLDRBLK
  1
Open30
  9
$DIMLUNIT
 70
     2
  9
$DIMLWD
 70
    -1
  9
$DIMLWE
 70
    -1
  9
$DIMTMOVE
 70
     0
  9
$LUNITS
 70
     2
  9
$LUPREC
 70
     2
  9
$SKETCHINC
 40
1.0
  9
$FILLETRAD
 40
2.5
  9
$AUNITS
 70
     0
  9
$AUPREC
 70
     0
  9
$MENU
  1
.
  9
$ELEVATION
 40
0.0
  9
$PELEVATION
 40
0.0
  9
$THICKNESS
 40
0.0
  9
$LIMCHECK
 70
     0
  9
$CHAMFERA
 40
10.0
  9
$CHAMFERB
 40
10.0
  9
$CHAMFERC
 40
10.00000000000004
  9
$CHAMFERD
 40
0.785398163397444
  9
$SKPOLY
 70
     0
  9
$TDCREATE
 40
2454292.679733854
  9
$TDUCREATE
 40
2454292.304733854
  9
$TDUPDATE
 40
2455974.492150486
  9
$TDUUPDATE
 40
2455974.117150486
  9
$TDINDWG
 40
0.0017362616
  9
$TDUSRTIMER
 40
0.0017362616
  9
$USRTIMER
 70
     1
  9
$ANGBASE
 50
0.0
  9
$ANGDIR
 70
     0
  9
$PDMODE
 70
     0
  9
$PDSIZE
 40
0.0
  9
$PLINEWID
 40
0.0
  9
$SPLFRAME
 70
     0
  9
$SPLINETYPE
 70
     6
  9
$SPLINESEGS
 70
     8
  9
$HANDSEED
  5
469C
  9
$SURFTAB1
 70
     6
  9
$SURFTAB2
 70
     6
  9
$SURFTYPE
 70
     6
  9
$SURFU
 70
     6
  9
$SURFV
 70
     6
  9
$UCSBASE
  2

  9
$UCSNAME
  2

  9
$UCSORG
 10
0.0
 20
0.0
 30
0.0
  9
$UCSXDIR
 10
1.0
 20
0.0
 30
0.0
  9
$UCSYDIR
 10
0.0
 20
1.0
 30
0.0
  9
$UCSORTHOREF
  2

  9
$UCSORTHOVIEW
 70
     0
  9
$UCSORGTOP
 10
0.0
 20
0.0
 30
0.0
  9
$UCSORGBOTTOM
 10
0.0
 20
0.0
 30
0.0
  9
$UCSORGLEFT
 10
0.0
 20
0.0
 30
0.0
  9
$UCSORGRIGHT
 10
0.0
 20
0.0
 30
0.0
  9
$UCSORGFRONT
 10
0.0
 20
0.0
 30
0.0
  9
$UCSORGBACK
 10
0.0
 20
0.0
 30
0.0
  9
$PUCSBASE
  2

  9
$PUCSNAME
  2

  9
$PUCSORG
 10
0.0
 20
0.0
 30
0.0
  9
$PUCSXDIR
 10
1.0
 20
0.0
 30
0.0
  9
$PUCSYDIR
 10
0.0
 20
1.0
 30
0.0
  9
$PUCSORTHOREF
  2

  9
$PUCSORTHOVIEW
 70
     0
  9
$PUCSORGTOP
 10
0.0
 20
0.0
 30
0.0
  9
$PUCSORGBOTTOM
 10
0.0
 20
0.0
 30
0.0
  9
$PUCSORGLEFT
 10
0.0
 20
0.0
 30
0.0
  9
$PUCSORGRIGHT
 10
0.0
 20
0.0
 30
0.0
  9
$PUCSORGFRONT
 10
0.0
 20
0.0
 30
0.0
  9
$PUCSORGBACK
 10
0.0
 20
0.0
 30
0.0
  9
$USERI1
 70
     0
  9
$USERI2
 70
     0
  9
$USERI3
 70
     0
  9
$USERI4
 70
     0
  9
$USERI5
 70
     0
  9
$USERR1
 40
0.0
  9
$USERR2
 40
0.0
  9
$USERR3
 40
0.0
  9
$USERR4
 40
0.0
  9
$USERR5
 40
0.0
  9
$WORLDVIEW
 70
     1
  9
$SHADEDGE
 70
     3
  9
$SHADEDIF
 70
    70
  9
$TILEMODE
 70
     1
  9
$MAXACTVP
 70
    64
  9
$PINSBASE
 10
0.0
 20
0.0
 30
0.0
  9
$PLIMCHECK
 70
     0
  9
$PEXTMIN
 10
1.000000000000000E+20
 20
1.000000000000000E+20
 30
1.000000000000000E+20
  9
$PEXTMAX
 10
-1.000000000000000E+20
 20
-1.000000000000000E+20
 30
-1.000000000000000E+20
  9
$PLIMMIN
 10
-6.350006103515625
 20
-6.349999904632567
  9
$PLIMMAX
 10
273.0499877929688
 20
209.5499939918518
  9
$UNITMODE
 70
     0
  9
$VISRETAIN
 70
     1
  9
$PLINEGEN
 70
     0
  9
$PSLTSCALE
 70
     1
  9
$TREEDEPTH
 70
  3020
  9
$CMLSTYLE
  2
Standard
  9
$CMLJUST
 70
     0
  9
$CMLSCALE
 40
20.0
  9
$PROXYGRAPHICS
 70
     1
  9
$MEASUREMENT
 70
     1
  9
$CELWEIGHT
370
    -1
  9
$ENDCAPS
280
     0
  9
$JOINSTYLE
280
     0
  9
$LWDISPLAY
290
     0
  9
$INSUNITS
 70
     4
  9
$HYPERLINKBASE
  1

  9
$STYLESHEET
  1
monochrome_ULVAC.ctb
  9
$XEDIT
290
     1
  9
$CEPSNTYPE
380
     0
  9
$PSTYLEMODE
290
     1
  9
$FINGERPRINTGUID
  2
{14F5C1A9-C1DC-4072-B6F0-3ADBB5F85793}
  9
$VERSIONGUID
  2
{384C1B5E-D46E-4EBB-804F-A50EEC3949E8}
  9
$EXTNAMES
290
     1
  9
$PSVPSCALE
 40
0.0
  9
$OLESTARTUP
290
     0
  0
ENDSEC
  0
SECTION
  2
CLASSES
  0
CLASS
  1
ACDBDICTIONARYWDFLT
  2
AcDbDictionaryWithDefault
  3
ObjectDBX Classes
 90
        0
280
     0
281
     0
  0
CLASS
  1
ACDBPLACEHOLDER
  2
AcDbPlaceHolder
  3
ObjectDBX Classes
 90
        0
280
     0
281
     0
  0
CLASS
  1
LAYOUT
  2
AcDbLayout
  3
ObjectDBX Classes
 90
        0
280
     0
281
     0
  0
CLASS
  1
AMGSETTINGSOBJ
  2
AmgSettingsObj
  3
"AcadM|Product Description: AutoCAD Mechanical|Company: Autodesk, Inc."
 90
     1024
280
     0
281
     0
  0
CLASS
  1
ACME_DOCUMENT
  2
AcMeDbDoc
  3
AcMeServices
 90
     1024
280
     0
281
     0
  0
CLASS
  1
ACMESCOPE
  2
AcMeScope
  3
AcMeServices
 90
     1024
280
     0
281
     0
  0
CLASS
  1
ACMECOMMANDHISTORY
  2
AcMeCommandHistory
  3
AcMeServices
 90
     1024
280
     0
281
     0
  0
CLASS
  1
DICTIONARYVAR
  2
AcDbDictionaryVar
  3
ObjectDBX Classes
 90
        0
280
     0
281
     0
  0
CLASS
  1
ACIMSYSVARMAN
  2
AcImSysVarManager
  3
AcMeServices
 90
     1024
280
     0
281
     0
  0
CLASS
  1
ACIMREALSYSVAR
  2
AcImRealSysVar
  3
AcMeServices
 90
     1024
280
     0
281
     0
  0
CLASS
  1
ACIMINTSYSVAR
  2
AcImIntSysVar
  3
AcMeServices
 90
     1024
280
     0
281
     0
  0
CLASS
  1
ACMEDRAWINGMAN
  2
AcMeDrawingMan
  3
AcMeServices
 90
     1024
280
     0
281
     0
  0
CLASS
  1
ACMEVIEW
  2
AcMeView
  3
AcMeServices
 90
     1024
280
     0
281
     0
  0
CLASS
  1
ACDBENTITYCACHE
  2
AcMeEntityCache
  3
AcMeServices
 90
     1024
280
     0
281
     0
  0
CLASS
  1
GSMANAGER
  2
AcMeGSManager
  3
AcMeServices
 90
    32768
280
     0
281
     0
  0
CLASS
  1
AMDTINTERNALREACTOR
  2
AmdtInternalReactor
  3
AcMeServices
 90
     1024
280
     0
281
     0
  0
CLASS
  1
ACMESTATEMGR
  2
AcMeStateMgr
  3
AcMeServices
 90
     1024
280
     0
281
     0
  0
CLASS
  1
ACGREFMASTER
  2
AcGrefMaster
  3
AcAttribServices
 90
     1024
280
     0
281
     0
  0
CLASS
  1
ACME_DATABASE
  2
AcMeDbDatabase
  3
AcMeServices
 90
     1024
280
     0
281
     0
  0
CLASS
  1
ACRFINSADJUSTERMGR
  2
AcRfInsAdjusterMgr
  3
AcMeServices
 90
     1024
280
     0
281
     0
  0
CLASS
  1
ACGREFACADMASTER
  2
AcGrefacadMaster
  3
AcGrefServices
 90
     1024
280
     0
281
     0
  0
CLASS
  1
AMIMASTER
  2
AmiMaster
  3
AmiServices
 90
     1024
280
     0
281
     0
  0
CLASS
  1
ACIMSTRSYSVAR
  2
AcImStrSysVar
  3
AcMeServices
 90
     1024
280
     0
281
     0
  0
CLASS
  1
ACMSTANDARDJIS
  2
AcmStandardJIS
  3
"Amdt_StdImp|Product Description: AutoCAD Mechanical|Company: Autodesk, Inc."
 90
    33792
280
     0
281
     0
  0
CLASS
  1
AMGOBJPROPCFG
  2
AmgObjPropCfg
  3
"AmgLay|Product Description: AutoCAD Mechanical|Company: Autodesk, Inc."
 90
     1025
280
     0
281
     0
  0
CLASS
  1
ACMSURFSTANDARDJIS
  2
AcmSurfTextStdJIS
  3
"Amdt_StdImp|Product Description: AutoCAD Mechanical|Company: Autodesk, Inc."
 90
    33792
280
     0
281
     0
  0
CLASS
  1
ACMFCFSTANDARDJIS
  2
AcmFCFStdJIS
  3
"Amdt_StdImp|Product Description: AutoCAD Mechanical|Company: Autodesk, Inc."
 90
    33792
280
     0
281
     0
  0
CLASS
  1
ACMWELDSTANDARDJIS
  2
AcmWeldingStdJIS
  3
"Amdt_StdImp|Product Description: AutoCAD Mechanical|Company: Autodesk, Inc."
 90
    33792
280
     0
281
     0
  0
CLASS
  1
ACMIDSTANDARDJIS
  2
AcmIdStdJIS
  3
"Amdt_StdImp|Product Description: AutoCAD Mechanical|Company: Autodesk, Inc."
 90
    33792
280
     0
281
     0
  0
CLASS
  1
ACMDATUMSTANDARDJIS
  2
AcmDatumStdJIS
  3
"Amdt_StdImp|Product Description: AutoCAD Mechanical|Company: Autodesk, Inc."
 90
    33792
280
     0
281
     0
  0
CLASS
  1
ACMBOMSTANDARDJIS
  2
AcmBOMStdJIS
  3
"Amdt_StdImp|Product Description: AutoCAD Mechanical|Company: Autodesk, Inc."
 90
    33792
280
     0
281
     0
  0
CLASS
  1
ACMDETAILSTANDARDJIS
  2
AmdtDetailSymStdJIS
  3
"Amdt_StdImp|Product Description: AutoCAD Mechanical|Company: Autodesk, Inc."
 90
    33792
280
     0
281
     0
  0
CLASS
  1
ACMSECTIONSTANDARDJIS
  2
AmdtSectionSymStdJIS
  3
"Amdt_StdImp|Product Description: AutoCAD Mechanical|Company: Autodesk, Inc."
 90
    33792
280
     0
281
     0
  0
CLASS
  1
ACMCENTERLINESTANDARDJIS
  2
AmdtCenterLineStdJIS
  3
"Amdt_StdImp|Product Description: AutoCAD Mechanical|Company: Autodesk, Inc."
 90
    33792
280
     0
281
     0
  0
CLASS
  1
ACMTHREADLINESTANDARDJIS
  2
AmdtThreadLineStdJIS
  3
"Amdt_StdImp|Product Description: AutoCAD Mechanical|Company: Autodesk, Inc."
 90
    33792
280
     0
281
     0
  0
CLASS
  1
ACAMGLAYSTD
  2
AcAmgLayStd
  3
"AmgLay|Product Description: AutoCAD Mechanical|Company: Autodesk, Inc."
 90
     1024
280
     0
281
     0
  0
CLASS
  1
ACAMGDIMSTD
  2
AcAmgDimStd
  3
"AmgDim|Product Description: AutoCAD Mechanical|Company: Autodesk, Inc."
 90
     1024
280
     0
281
     0
  0
CLASS
  1
ACAMGTITLESTD
  2
AcAmgTitleStd
  3
"AmgTitle|Product Description: AutoCAD Mechanical|Company: Autodesk, Inc."
 90
     4095
280
     0
281
     0
  0
CLASS
  1
ACMDATADICTIONARY
  2
AcmDataDictionary
  3
"AcmSymBB|Product Description: AutoCAD Mechanical|Company: Autodesk, Inc."
 90
     1024
280
     0
281
     0
  0
CLASS
  1
ACMDATAENTRYBLOCK
  2
AcmDataEntryBlock
  3
AcmSymBB|Product Description: AutoCAD Mechanical|Company: Autodesk, Inc.
 90
    33792
280
     0
281
     0
  0
CLASS
  1
LAYER_INDEX
  2
AcDbLayerIndex
  3
ObjectDBX Classes
 90
    32768
280
     0
281
     0
  0
CLASS
  1
IDBUFFER
  2
AcDbIdBuffer
  3
ObjectDBX Classes
 90
    32768
280
     0
281
     0
  0
CLASS
  1
ACMNOTESTANDARDJIS
  2
AmdtNoteStdJIS
  3
"Amdt_StdImp|Product Description: AutoCAD Mechanical|Company: Autodesk, Inc."
 90
    33792
280
     0
281
     0
  0
CLASS
  1
ACAMGHOLECHARTSTDJIS
  2
AcAmgHoleChartStdJIS
  3
AmgDim|Product Description: AutoCAD Mechanical|Company: Autodesk, Inc.
 90
    33792
280
     0
281
     0
  0
CLASS
  1
AM_DRAWING_MGR
  2
AcDmDwgMgr
  3
AcMechDwgViewMgmt
 90
     1024
280
     0
281
     0
  0
CLASS
  1
AM_DWG_DOCUMENT
  2
AcDmDwgDocument
  3
AcMechDwgViewMgmt
 90
     1024
280
     0
281
     0
  0
CLASS
  1
AM_DWG_SHEET
  2
AcDmSheet
  3
AcMechDwgViewMgmt
 90
     1024
280
     0
281
     0
  0
CLASS
  1
AM_VIEWDIMPARMAP
  2
AcDmViewDimParMap
  3
AcMechDwgViewMgmt
 90
     1024
280
     0
281
     0
  0
CLASS
  1
AM_DWGMGR_NAME
  2
AcDmDwgMgrName
  3
AcMechDwgViewMgmt
 90
     1024
280
     0
281
     0
  0
CLASS
  1
AMDTMENUSTATEMGR
  2
AmdtMenuStateMgr
  3
McadcomServices
 90
     1024
280
     0
281
     0
  0
CLASS
  1
AMDTMCOMMENUSTATE
  2
AmdtMcomMenuState
  3
McadcomServices
 90
     1024
280
     0
281
     0
  0
CLASS
  1
MAPIAMMOUDLE
  2
MApiAmModule
  3
MApiAmServices
 90
     1024
280
     0
281
     0
  0
CLASS
  1
AMDTADMENUSTATE
  2
AmdtAdMenuState
  3
DesignerServices
 90
     1024
280
     0
281
     0
  0
CLASS
  1
ADAPPL
  2
AcAdAppl
  3
DesignerServices
 90
     1024
280
     0
281
     0
  0
CLASS
  1
DEPMGR
  2
AcAdDepMgr
  3
DesignerServices
 90
     1024
280
     0
281
     0
  0
CLASS
  1
PARAMMGR
  2
AcAdParamMgr
  3
DesignerServices
 90
     1024
280
     0
281
     0
  0
CLASS
  1
PARAMSCOPE
  2
AcAdParamScope
  3
DesignerServices
 90
     1024
280
     0
281
     0
  0
CLASS
  1
NAMEDAPPL
  2
AcAdNamedAppl
  3
DesignerServices
 90
     1024
280
     0
281
     0
  0
CLASS
  1
AMDTDMMENUSTATE
  2
AmdtDmMenuState
  3
AcMechDwgViewMgmt
 90
     1024
280
     0
281
     0
  0
CLASS
  1
AMDTAMMENUSTATE
  2
AmdtAmMenuState
  3
DesignerAssemblies
 90
     1024
280
     0
281
     0
  0
CLASS
  1
ACAMPROJECT
  2
AcAmProject
  3
DesignerAssemblies
 90
     1024
280
     0
281
     0
  0
CLASS
  1
ACAMGRCOMPDEF
  2
AcAmGrCompDef
  3
DesignerAssemblies
 90
     1024
280
     0
281
     0
  0
CLASS
  1
ACCMCONTEXT
  2
AcCmContext
  3
DesignerAssemblies
 90
    33792
280
     0
281
     0
  0
CLASS
  1
ACAMCOMPDEF
  2
AcAmCompDef
  3
DesignerAssemblies
 90
     1024
280
     0
281
     0
  0
CLASS
  1
ACAMCOMPDEFMGR
  2
AcAmCompDefMgr
  3
DesignerAssemblies
 90
     1024
280
     0
281
     0
  0
CLASS
  1
AMCONTEXTMGR
  2
AcAmContextMgr
  3
DesignerAssemblies
 90
     1024
280
     0
281
     0
  0
CLASS
  1
ACAMCONTEXTMODELER
  2
AcAmContextModeler
  3
DesignerAssemblies
 90
     1024
280
     0
281
     0
  0
CLASS
  1
CATALOGSTATE
  2
AcAmCatalogState
  3
DesignerAssemblies
 90
     1024
280
     0
281
     0
  0
CLASS
  1
ACAMGRCOMPDEFSET
  2
AcAmGrCompDefSet
  3
DesignerAssemblies
 90
     1024
280
     0
281
     0
  0
CLASS
  1
AMDTBROWSERDBTAB
  2
AmdtBrowserDbTab
  3
McadcomServices
 90
     1024
280
     0
281
     0
  0
CLASS
  1
CBROWSERAPPOBJECT
  2
CBrowserAppObject
  3
McadcomServices
 90
     1024
280
     0
281
     0
  0
CLASS
  1
DM_PLACEHOLDER
  2
AcDmSelsetPlaceholder
  3
AcMechDwgViewMgmt
 90
     1024
280
     0
281
     0
  0
CLASS
  1
TABLESTYLE
  2
AcDbTableStyle
  3
ObjectDBX Classes
 90
     4095
280
     0
281
     0
  0
CLASS
  1
VAACXREFPANELOBJECT
  2
VaAcXREFPanelObject
  3
VAAC_ADDIN
 90
    32768
280
     0
281
     0
  0
CLASS
  1
VAACIMAGEINVENTORY
  2
VaAcImageInventory
  3
VAAC_ADDIN
 90
    32768
280
     0
281
     0
  0
CLASS
  1
AMDTNOTETEMPLATEDB
  2
AmdtNoteTemplateDB
  3
AcmSymBB|Product Description: AutoCAD Mechanical|Company: Autodesk, Inc.
 90
     1024
280
     0
281
     0
  0
CLASS
  1
ACMBOM
  2
AcmBom
  3
"AcmSymBB|Product Description: AutoCAD Mechanical|Company: Autodesk, Inc."
 90
    33792
280
     0
281
     0
  0
CLASS
  1
AMDTFORMULAUPDATEDISPATCHER
  2
AmdtFormulaUpdateDispatcher
  3
AcMeServices
 90
    33792
280
     0
281
     0
  0
CLASS
  1
ACMPARTLIST
  2
AcmPartList
  3
"AcmSymBB|Product Description: AutoCAD Mechanical|Company: Autodesk, Inc."
 90
    36863
280
     0
281
     1
  0
CLASS
  1
ACAMGFILTERDAT
  2
AcAmgFilterDat
  3
"AcadM|Product Description: AutoCAD Mechanical|Company: Autodesk, Inc."
 90
    33792
280
     0
281
     0
  0
CLASS
  1
ACMFCFSTANDARDJIS98
  2
AcmFCFStdJIS98
  3
"Amdt_StdImp|Product Description: AutoCAD Mechanical|Company: Autodesk, Inc."
 90
    33792
280
     0
281
     0
  0
CLASS
  1
AMDTNOTE
  2
AmdtNote
  3
"AcmSymBB|Product Description: AutoCAD Mechanical|Company: Autodesk, Inc."
 90
    36863
280
     0
281
     1
  0
CLASS
  1
AC_AM_MVD_DEP_MGR
  2
AcAmMVDdepMgr
  3
DesignerAssemblies
 90
    33792
280
     0
281
     0
  0
CLASS
  1
AC_AM_MASTER_VIEW_DEF
  2
AcAmMasterViewDef
  3
DesignerAssemblies
 90
    33792
280
     0
281
     0
  0
CLASS
  1
AC_AM_DIRTY_NODES
  2
AcAmDirtyNodes
  3
DesignerAssemblies
 90
    33792
280
     0
281
     0
  0
CLASS
  1
AC_AM_MAPPER_CACHE
  2
AcAmMapperCache
  3
DesignerAssemblies
 90
    33792
280
     0
281
     0
  0
CLASS
  1
ACAMMVDBACKUPOBJECT
  2
AcAmMVDBackupObject
  3
DesignerAssemblies
 90
    33792
280
     0
281
     0
  0
CLASS
  1
AC_AM_HIDE_SITUATION
  2
AcAmHideSituation
  3
DesignerAssemblies
 90
    33792
280
     0
281
     0
  0
CLASS
  1
AC_AM_2D_XREF_MGR
  2
AcAmXrefMgr2d
  3
DesignerAssemblies
 90
    33792
280
     0
281
     0
  0
CLASS
  1
ACMDATAENTRYPART
  2
AcmDataEntryPart
  3
AcmSymBB|Product Description: AutoCAD Mechanical|Company: Autodesk, Inc.
 90
    33792
280
     0
281
     0
  0
CLASS
  1
ACMPARTREF
  2
AcmPartRef
  3
"AcmSymBB|Product Description: AutoCAD Mechanical|Company: Autodesk, Inc."
 90
    36863
280
     0
281
     1
  0
CLASS
  1
ACMBOMROW
  2
AcmBomRow
  3
"AcmSymBB|Product Description: AutoCAD Mechanical|Company: Autodesk, Inc."
 90
    33792
280
     0
281
     0
  0
CLASS
  1
ACMBALLOON
  2
AcmBalloon
  3
"AcmSymBB|Product Description: AutoCAD Mechanical|Company: Autodesk, Inc."
 90
    36863
280
     0
281
     1
  0
CLASS
  1
STDPART2D
  2
AmgStdPart
  3
AmgStdPart|Product Description: AutoCAD Mechanical|Company: Autodesk, Inc.
 90
    36863
280
     0
281
     1
  0
CLASS
  1
ACAMSTDPCOMPDEF
  2
AcAmStdpCompDef
  3
DesignerAssemblies
 90
    33792
280
     0
281
     0
  0
CLASS
  1
ACRFATTGENMGR
  2
AcRfAttGeneralMgr
  3
AcAttribServices
 90
    33792
280
     0
281
     0
  0
CLASS
  1
ACRFOBJATTMGR
  2
AcRfObjAttGroupMgr
  3
AcAttribServices
 90
    33792
280
     0
281
     0
  0
CLASS
  1
ACRFMCADAPIATTHOLDER
  2
AcRfMCADAPIAttHolder
  3
AcAttribServices
 90
    33792
280
     0
281
     0
  0
CLASS
  1
AMDTSYSATTR
  2
AmdtSystemAttribute
  3
AcAttribServices
 90
    33792
280
     0
281
     0
  0
CLASS
  1
ACAMCOMP
  2
AcAmComp
  3
DesignerAssemblies
 90
    33792
280
     0
281
     0
  0
CLASS
  1
AC_AM_STDP_VIEW_DEF
  2
AcAmStdpViewDef
  3
DesignerAssemblies
 90
    33792
280
     0
281
     0
  0
CLASS
  1
AC_AM_COMP_VIEW_INST
  2
AcAmCompView
  3
DesignerAssemblies
 90
    33792
280
     0
281
     0
  0
CLASS
  1
ACDBSTDPARTRES_ARC
  2
AcDbStdPartRes_Arc
  3
AmgStdPart|Product Description: AutoCAD Mechanical|Company: Autodesk, Inc.
 90
    33792
280
     0
281
     0
  0
CLASS
  1
ACMSURFSYM
  2
AcmSurfaceTexture
  3
"AcmSymBB|Product Description: AutoCAD Mechanical|Company: Autodesk, Inc."
 90
    36863
280
     0
281
     1
  0
CLASS
  1
ACMSTANDARDANSI
  2
AcmStandardANSI
  3
"Amdt_StdImp|Product Description: AutoCAD Mechanical|Company: Autodesk, Inc."
 90
    33792
280
     0
281
     0
  0
CLASS
  1
ACMSURFSTANDARDANSI
  2
AcmSurfTextStdANSI
  3
"Amdt_StdImp|Product Description: AutoCAD Mechanical|Company: Autodesk, Inc."
 90
    33792
280
     0
281
     0
  0
CLASS
  1
ACMFCFSTANDARDANSI
  2
AcmFCFStdANSI
  3
"Amdt_StdImp|Product Description: AutoCAD Mechanical|Company: Autodesk, Inc."
 90
    33792
280
     0
281
     0
  0
CLASS
  1
ACMWELDSTANDARDANSI
  2
AcmWeldingStdANSI
  3
"Amdt_StdImp|Product Description: AutoCAD Mechanical|Company: Autodesk, Inc."
 90
    33792
280
     0
281
     0
  0
CLASS
  1
ACMIDSTANDARDANSI
  2
AcmIdStdANSI
  3
"Amdt_StdImp|Product Description: AutoCAD Mechanical|Company: Autodesk, Inc."
 90
    33792
280
     0
281
     0
  0
CLASS
  1
ACMDATUMSTANDARDANSI
  2
AcmDatumStdANSI
  3
"Amdt_StdImp|Product Description: AutoCAD Mechanical|Company: Autodesk, Inc."
 90
    33792
280
     0
281
     0
  0
CLASS
  1
ACMBOMSTANDARDANSI
  2
AcmBOMStdANSI
  3
"Amdt_StdImp|Product Description: AutoCAD Mechanical|Company: Autodesk, Inc."
 90
    33792
280
     0
281
     0
  0
CLASS
  1
ACMDETAILSTANDARDANSI
  2
AmdtDetailSymStdANSI
  3
"Amdt_StdImp|Product Description: AutoCAD Mechanical|Company: Autodesk, Inc."
 90
    33792
280
     0
281
     0
  0
CLASS
  1
ACMSECTIONSTANDARDANSI
  2
AmdtSectionSymStdANSI
  3
"Amdt_StdImp|Product Description: AutoCAD Mechanical|Company: Autodesk, Inc."
 90
    33792
280
     0
281
     0
  0
CLASS
  1
ACMCENTERLINESTANDARDANSI
  2
AmdtCenterLineStdANSI
  3
"Amdt_StdImp|Product Description: AutoCAD Mechanical|Company: Autodesk, Inc."
 90
    33792
280
     0
281
     0
  0
CLASS
  1
ACMTHREADLINESTANDARDANSI
  2
AmdtThreadLineStdANSI
  3
"Amdt_StdImp|Product Description: AutoCAD Mechanical|Company: Autodesk, Inc."
 90
    33792
280
     0
281
     0
  0
CLASS
  1
ACMNOTESTANDARDANSI
  2
AmdtNoteStdANSI
  3
"Amdt_StdImp|Product Description: AutoCAD Mechanical|Company: Autodesk, Inc."
 90
    33792
280
     0
281
     0
  0
CLASS
  1
ACAMGHOLECHARTSTDANSI
  2
AcAmgHoleChartStdANSI
  3
AmgDim|Product Description: AutoCAD Mechanical|Company: Autodesk, Inc.
 90
    33792
280
     0
281
     0
  0
CLASS
  1
SORTENTSTABLE
  2
AcDbSortentsTable
  3
ObjectDBX Classes
 90
        0
280
     0
281
     0
  0
CLASS
  1
ACMSTANDARDISO
  2
AcmStandardISO
  3
"Amdt_StdImp|Product Description: AutoCAD Mechanical|Company: Autodesk, Inc."
 90
     1024
280
     0
281
     0
  0
CLASS
  1
AMDTEDGESTANDARDISO13715
  2
AmdtEdgeStdISO13715
  3
"Amdt_StdImp|Product Description: AutoCAD Mechanical|Company: Autodesk, Inc."
 90
     1024
280
     0
281
     0
  0
CLASS
  1
ACMSURFSTANDARDISO
  2
AcmSurfTextStdISO
  3
"Amdt_StdImp|Product Description: AutoCAD Mechanical|Company: Autodesk, Inc."
 90
    33792
280
     0
281
     0
  0
CLASS
  1
ACMFCFSTANDARDISO
  2
AcmFCFStdISO
  3
"Amdt_StdImp|Product Description: AutoCAD Mechanical|Company: Autodesk, Inc."
 90
     1024
280
     0
281
     0
  0
CLASS
  1
ACMWELDSTANDARDISO
  2
AcmWeldingStdISO
  3
"Amdt_StdImp|Product Description: AutoCAD Mechanical|Company: Autodesk, Inc."
 90
     1024
280
     0
281
     0
  0
CLASS
  1
ACMIDSTANDARDISO
  2
AcmIdStdISO
  3
"Amdt_StdImp|Product Description: AutoCAD Mechanical|Company: Autodesk, Inc."
 90
     1024
280
     0
281
     0
  0
CLASS
  1
ACMDATUMSTANDARDISO
  2
AcmDatumStdISO
  3
"Amdt_StdImp|Product Description: AutoCAD Mechanical|Company: Autodesk, Inc."
 90
     1024
280
     0
281
     0
  0
CLASS
  1
ACMBOMSTANDARDISO
  2
AcmBOMStdISO
  3
"Amdt_StdImp|Product Description: AutoCAD Mechanical|Company: Autodesk, Inc."
 90
     1024
280
     0
281
     0
  0
CLASS
  1
ACMDETAILSTANDARDISO
  2
AmdtDetailSymStdISO
  3
"Amdt_StdImp|Product Description: AutoCAD Mechanical|Company: Autodesk, Inc."
 90
     1024
280
     0
281
     0
  0
CLASS
  1
ACMSECTIONSTANDARDISO
  2
AmdtSectionSymStdISO
  3
"Amdt_StdImp|Product Description: AutoCAD Mechanical|Company: Autodesk, Inc."
 90
    33792
280
     0
281
     0
  0
CLASS
  1
ACMCENTERLINESTANDARDISO
  2
AmdtCenterLineStdISO
  3
"Amdt_StdImp|Product Description: AutoCAD Mechanical|Company: Autodesk, Inc."
 90
     1024
280
     0
281
     0
  0
CLASS
  1
ACMTHREADLINESTANDARDISO
  2
AmdtThreadLineStdISO
  3
"Amdt_StdImp|Product Description: AutoCAD Mechanical|Company: Autodesk, Inc."
 90
     1024
280
     0
281
     0
  0
CLASS
  1
ACMNOTESTANDARDISO
  2
AmdtNoteStdISO
  3
"Amdt_StdImp|Product Description: AutoCAD Mechanical|Company: Autodesk, Inc."
 90
     1024
280
     0
281
     0
  0
CLASS
  1
ACAMGHOLECHARTSTDISO
  2
AcAmgHoleChartStdISO
  3
AmgDim|Product Description: AutoCAD Mechanical|Company: Autodesk, Inc.
 90
     1024
280
     0
281
     0
  0
CLASS
  1
AMDTSECTIONSYM
  2
AmdtSectionSym
  3
"AcmSymBB|Product Description: AutoCAD Mechanical|Company: Autodesk, Inc."
 90
    36863
280
     0
281
     1
  0
CLASS
  1
AMDTSECTIONSYMLABEL
  2
AmdtSectionSymLabel
  3
"AcmSymBB|Product Description: AutoCAD Mechanical|Company: Autodesk, Inc."
 90
    36863
280
     0
281
     1
  0
CLASS
  1
PLOTSETTINGS
  2
AcDbPlotSettings
  3
ObjectDBX Classes
 90
        0
280
     0
281
     0
  0
CLASS
  1
FIELD
  2
AcDbField
  3
ObjectDBX Classes
 90
    33920
280
     0
281
     0
  0
CLASS
  1
FIELDLIST
  2
AcDbFieldList
  3
ObjectDBX Classes
 90
     1152
280
     0
281
     0
  0
CLASS
  1
MATERIAL
  2
AcDbMaterial
  3
ObjectDBX Classes
 90
     1153
280
     0
281
     0
  0
CLASS
  1
VISUALSTYLE
  2
AcDbVisualStyle
  3
ObjectDBX Classes
 90
     4095
280
     0
281
     0
  0
CLASS
  1
ACMTAPERSTANDARDJIS
  2
AcmTaperStdJIS
  3
"Amdt_StdImp|Product Description: AutoCAD Mechanical|Company: Autodesk, Inc."
 90
    33792
280
     0
281
     0
  0
CLASS
  1
CAMSSTRUCTBTNSTATE
  2
StructBtnState
  3
DesignerAssemblies
 90
     1024
280
     0
281
     0
  0
CLASS
  1
ACAD_EVALUATION_GRAPH
  2
AcDbEvalGraph
  3
ObjectDBX Classes
 90
    33921
280
     0
281
     0
  0
CLASS
  1
ACAECUSTOBJ
  2
AcAeEditorObj
  3
AcAeEditorObj
 90
    33792
280
     0
281
     0
  0
CLASS
  1
ACDB_DYNAMICBLOCKPURGEPREVENTER_VERSION
  2
AcDbDynamicBlockPurgePreventer
  3
ObjectDBX Classes
 90
    33921
280
     0
281
     0
  0
CLASS
  1
ACDBSTDPARTRES_LINE
  2
AcDbStdPartRes_Line
  3
AmgStdPart|Product Description: AutoCAD Mechanical|Company: Autodesk, Inc.
 90
    33792
280
     0
281
     0
  0
CLASS
  1
ACMTAPERSTANDARDISO
  2
AcmTaperStdISO
  3
"Amdt_StdImp|Product Description: AutoCAD Mechanical|Company: Autodesk, Inc."
 90
     1024
280
     0
281
     0
  0
CLASS
  1
SCALE
  2
AcDbScale
  3
ObjectDBX Classes
 90
     1153
280
     0
281
     0
  0
CLASS
  1
MLEADERSTYLE
  2
AcDbMLeaderStyle
  3
ACDB_MLEADERSTYLE_CLASS
 90
     4095
280
     0
281
     0
  0
CLASS
  1
EXACXREFPANELOBJECT
  2
ExAcXREFPanelObject
  3
EXAC_ESW
 90
     1025
280
     0
281
     0
  0
CLASS
  1
NPOCOLLECTION
  2
AcDbImpNonPersistentObjectsCollection
  3
ObjectDBX Classes
 90
     1153
280
     0
281
     0
  0
CLASS
  1
ACMSURFSTANDARDISO2002
  2
AcmSurfTextStdISO2002
  3
"Amdt_StdImp|Product Description: AutoCAD Mechanical|Company: Autodesk, Inc."
 90
     1024
280
     0
281
     0
  0
CLASS
  1
ACMSECTIONSTANDARDISO2001
  2
AmdtSectionSymStdISO2001
  3
"Amdt_StdImp|Product Description: AutoCAD Mechanical|Company: Autodesk, Inc."
 90
     1024
280
     0
281
     0
  0
CLASS
  1
ACMANOOTATIONVIEWSTANDARDISO
  2
AmdtAnViewStdISO
  3
"Amdt_StdImp|Product Description: AutoCAD Mechanical|Company: Autodesk, Inc."
 90
     1024
280
     0
281
     0
  0
CLASS
  1
CELLSTYLEMAP
  2
AcDbCellStyleMap
  3
ObjectDBX Classes
 90
     1152
280
     0
281
     0
  0
ENDSEC
  0
SECTION
  2
TABLES
  0
TABLE
  2
VPORT
  5
8
330
0
100
AcDbSymbolTable
 70
     1
  0
VPORT
  5
3734
330
8
100
AcDbSymbolTableRecord
100
AcDbViewportTableRecord
  2
*Active
 70
     0
 10
0.0
 20
0.0
 11
1.0
 21
1.0
 12
735.0000478810983
 22
519.7500333654459
 13
0.0
 23
0.0
 14
2.5
 24
2.5
 15
10.0
 25
10.0
 16
0.0
 26
0.0
 36
1.0
 17
0.0
 27
0.0
 37
0.0
 40
1046.23761829246
 41
1.964781216648879
 42
50.0
 43
0.0
 44
0.0
 50
0.0
 51
0.0
 71
    16
 72
   100
 73
     1
 74
     3
 75
     0
 76
     0
 77
     0
 78
     0
281
     0
 65
     0
110
0.0
120
0.0
130
0.0
111
1.0
121
0.0
131
0.0
112
0.0
122
1.0
132
0.0
 79
     0
146
0.0
  0
ENDTAB
  0
TABLE
  2
LTYPE
  5
5
330
0
100
AcDbSymbolTable
 70
    21
  0
LTYPE
  5
14
330
5
100
AcDbSymbolTableRecord
100
AcDbLinetypeTableRecord
  2
ByBlock
 70
     0
  3

 72
    65
 73
     0
 40
0.0
  0
LTYPE
  5
15
330
5
100
AcDbSymbolTableRecord
100
AcDbLinetypeTableRecord
  2
ByLayer
 70
     0
  3

 72
    65
 73
     0
 40
0.0
  0
LTYPE
  5
16
330
5
100
AcDbSymbolTableRecord
100
AcDbLinetypeTableRecord
  2
Continuous
 70
     0
  3
Solid line
 72
    65
 73
     0
 40
0.0
  0
LTYPE
  5
4D
330
5
100
AcDbSymbolTableRecord
100
AcDbLinetypeTableRecord
  2
AM_ISO02W050
 70
     0
  3
__ __ __ __ __ __ __ __ __ __ __ __ __ __ __
 72
    65
 73
     2
 40
7.5
 49
6.0
 74
     0
 49
-1.5
 74
     0
  0
LTYPE
  5
4E
330
5
100
AcDbSymbolTableRecord
100
AcDbLinetypeTableRecord
  2
AM_ISO08W050
 70
     0
  3
____ . ____ . ____ . ____ . ____ . ____ . ____
 72
    65
 73
     4
 40
18.0
 49
12.0
 74
     0
 49
-1.5
 74
     0
 49
3.0
 74
     0
 49
-1.5
 74
     0
  0
LTYPE
  5
4F
330
5
100
AcDbSymbolTableRecord
100
AcDbLinetypeTableRecord
  2
AM_ISO09W050
 70
     0
  3
_____ . . _____ . . _____ . . ____ .. ____
 72
    65
 73
     6
 40
22.5
 49
12.0
 74
     0
 49
-1.5
 74
     0
 49
3.0
 74
     0
 49
-1.5
 74
     0
 49
3.0
 74
     0
 49
-1.5
 74
     0
  0
LTYPE
  5
50
330
5
100
AcDbSymbolTableRecord
100
AcDbLinetypeTableRecord
  2
Amconstr
 70
     0
  3
_______________________
 72
    65
 73
     2
 40
9999.0
 49
9999.0
 74
     0
 49
0.0
 74
     0
  0
LTYPE
  5
51
330
5
100
AcDbSymbolTableRecord
100
AcDbLinetypeTableRecord
  2
AM_ISO08W050x2
 70
     0
  3
__ . __ . __ . __ . __ . __
 72
    65
 73
     4
 40
9.0
 49
6.0
 74
     0
 49
-0.75
 74
     0
 49
1.5
 74
     0
 49
-0.75
 74
     0
  0
LTYPE
  5
52
330
5
100
AcDbSymbolTableRecord
100
AcDbLinetypeTableRecord
  2
AM_ISO02W050x2
 70
     0
  3
 _ _ _ _ _ _ _ _ _ _ _ _
 72
    65
 73
     2
 40
3.75
 49
3.0
 74
     0
 49
-0.75
 74
     0
  0
LTYPE
  5
55
330
5
100
AcDbSymbolTableRecord
100
AcDbLinetypeTableRecord
  2
Amzigzag
 70
     0
  3
/\/-/\/-/\/-/\/-/\/-/\/
 72
    65
 73
     2
 40
11.0001
 49
0.0001
 74
     4
 75
   135
340
54
 46
0.04
 50
0.0
 44
0.0
 45
0.0
 49
-11.0
 74
     0
  0
LTYPE
  5
62
330
5
100
AcDbSymbolTableRecord
100
AcDbLinetypeTableRecord
  2
ACJISTGB
 70
     0
  3
__ . . __ . .
 72
    65
 73
     6
 40
9.0
 49
4.0
 74
     0
 49
-1.0
 74
     0
 49
1.0
 74
     0
 49
-1.0
 74
     0
 49
1.0
 74
     0
 49
-1.0
 74
     0
  0
LTYPE
  5
63
330
5
100
AcDbSymbolTableRecord
100
AcDbLinetypeTableRecord
  2
ACJISTGL
 70
     0
  3
_ _ _ _ _
 72
    65
 73
     2
 40
3.0
 49
2.0
 74
     0
 49
-1.0
 74
     0
  0
LTYPE
  5
65
330
5
100
AcDbSymbolTableRecord
100
AcDbLinetypeTableRecord
  2
CENTER
 70
     0
  3
__ . __
 72
    65
 73
     4
 40
7.0
 49
4.0
 74
     0
 49
-1.0
 74
     0
 49
1.0
 74
     0
 49
-1.0
 74
     0
  0
LTYPE
  5
E0
330
5
100
AcDbSymbolTableRecord
100
AcDbLinetypeTableRecord
  2
HIDDEN
 70
     0
  3
Hidden __ __ __ __ __ __ __ __ __ __ __ __ __ _
 72
    65
 73
     2
 40
9.524999999999996
 49
6.349999999999998
 74
     0
 49
-3.174999999999998
 74
     0
  0
LTYPE
  5
E1
330
5
100
AcDbSymbolTableRecord
100
AcDbLinetypeTableRecord
  2
PHANTOM2
 70
     0
  3
Phantom (.5x) ___ _ _ ___ _ _ ___ _ _ ___ _ _
 72
    65
 73
     6
 40
31.75
 49
15.875
 74
     0
 49
-3.174999999999998
 74
     0
 49
3.174999999999998
 74
     0
 49
-3.174999999999998
 74
     0
 49
3.174999999999998
 74
     0
 49
-3.174999999999998
 74
     0
  0
LTYPE
  5
217
330
5
100
AcDbSymbolTableRecord
100
AcDbLinetypeTableRecord
  2
ACJISWELD
 70
     0
  3
_ _ _ _ _
 72
    65
 73
     2
 40
2.0
 49
2.0
 74
     0
 49
-1.0
 74
     0
  0
LTYPE
  5
39B8
330
5
100
AcDbSymbolTableRecord
100
AcDbLinetypeTableRecord
  2
HIDDEN2
 70
     0
  3
Hidden (.5x) _ _ _ _ _ _ _ _ _ _ _ _ _ _ _ _ _
 72
    65
 73
     2
 40
4.762499999999998
 49
3.174999999999998
 74
     0
 49
-1.587499999999999
 74
     0
  0
LTYPE
  5
3B62
330
5
100
AcDbSymbolTableRecord
100
AcDbLinetypeTableRecord
  2
CENTER2
 70
     0
  3
Center (.5x) ___ _ ___ _ ___ _ ___ _ ___ _ ___
 72
    65
 73
     4
 40
28.575
 49
19.05
 74
     0
 49
-3.174999999999998
 74
     0
 49
3.174999999999998
 74
     0
 49
-3.174999999999998
 74
     0
  0
LTYPE
  5
438C
330
5
100
AcDbSymbolTableRecord
100
AcDbLinetypeTableRecord
  2
DASHED
 70
     0
  3
Dashed __ __ __ __ __ __ __ __ __ __ __ __ __ _
 72
    65
 73
     2
 40
19.05
 49
12.7
 74
     0
 49
-6.349999999999998
 74
     0
  0
LTYPE
  5
438D
330
5
100
AcDbSymbolTableRecord
100
AcDbLinetypeTableRecord
  2
NON_PLOTING
 70
     0
  3
Solid line
 72
    65
 73
     0
 40
0.0
  0
LTYPE
  5
438E
330
5
100
AcDbSymbolTableRecord
100
AcDbLinetypeTableRecord
  2
ACISOWELD
 70
     0
  3
_ _ _ _ _
 72
    65
 73
     2
 40
2.0
 49
2.0
 74
     0
 49
-1.0
 74
     0
  0
LTYPE
  5
438F
330
5
100
AcDbSymbolTableRecord
100
AcDbLinetypeTableRecord
  2
ACISOTGB
 70
     0
  3
__ . . __ . .
 72
    65
 73
     6
 40
9.0
 49
4.0
 74
     0
 49
-1.0
 74
     0
 49
1.0
 74
     0
 49
-1.0
 74
     0
 49
1.0
 74
     0
 49
-1.0
 74
     0
  0
LTYPE
  5
4390
330
5
100
AcDbSymbolTableRecord
100
AcDbLinetypeTableRecord
  2
ACISOTGL
 70
     0
  3
_ _ _ _ _
 72
    65
 73
     2
 40
3.0
 49
2.0
 74
     0
 49
-1.0
 74
     0
  0
ENDTAB
  0
TABLE
  2
LAYER
  5
2
102
{ACAD_XDICTIONARY
360
BF
102
}
330
0
100
AcDbSymbolTable
 70
    23
  0
LAYER
  5
10
102
{ACAD_XDICTIONARY
360
45FE
102
}
330
2
100
AcDbSymbolTableRecord
100
AcDbLayerTableRecord
  2
0
 70
     0
 62
     7
  6
Continuous
370
    -3
390
F
  0
LAYER
  5
81
102
{ACAD_XDICTIONARY
360
4600
102
}
330
2
100
AcDbSymbolTableRecord
100
AcDbLayerTableRecord
  2
PROFILE2
 70
     0
 62
     4
  6
Continuous
370
    35
390
F
  0
LAYER
  5
1BC
102
{ACAD_XDICTIONARY
360
4602
102
}
330
2
100
AcDbSymbolTableRecord
100
AcDbLayerTableRecord
  2
DIMENSION
 70
     0
 62
     7
  6
Continuous
370
    18
390
F
  0
LAYER
  5
1A29
102
{ACAD_XDICTIONARY
360
4604
102
}
330
2
100
AcDbSymbolTableRecord
100
AcDbLayerTableRecord
  2
HIDDEN1
 70
     0
 62
     3
  6
HIDDEN
370
    18
390
F
  0
LAYER
  5
1A3F
102
{ACAD_XDICTIONARY
360
4606
102
}
330
2
100
AcDbSymbolTableRecord
100
AcDbLayerTableRecord
  2
CENTER1
 70
     0
 62
     7
  6
CENTER2
370
    18
390
F
  0
LAYER
  5
1A6C
102
{ACAD_XDICTIONARY
360
4608
102
}
330
2
100
AcDbSymbolTableRecord
100
AcDbLayerTableRecord
  2
SECTION1
 70
     0
 62
     3
  6
Continuous
370
    18
390
F
  0
LAYER
  5
1A6D
102
{ACAD_XDICTIONARY
360
460A
102
}
330
2
100
AcDbSymbolTableRecord
100
AcDbLayerTableRecord
  2
HATCH
 70
     0
 62
     7
  6
Continuous
370
    18
390
F
  0
LAYER
  5
1A6E
102
{ACAD_XDICTIONARY
360
460C
102
}
330
2
100
AcDbSymbolTableRecord
100
AcDbLayerTableRecord
  2
TEXT
 70
     0
 62
     7
  6
Continuous
370
    18
390
F
  0
LAYER
  5
1A72
102
{ACAD_XDICTIONARY
360
460E
102
}
330
2
100
AcDbSymbolTableRecord
100
AcDbLayerTableRecord
  2
NONPLOT
 70
     0
 62
     7
  6
Continuous
290
     0
370
    18
390
F
  0
LAYER
  5
1AE0
102
{ACAD_XDICTIONARY
360
4610
102
}
330
2
100
AcDbSymbolTableRecord
100
AcDbLayerTableRecord
  2
PROFILE1
 70
     0
 62
     2
  6
Continuous
370
    18
390
F
  0
LAYER
  5
1AE1
102
{ACAD_XDICTIONARY
360
4612
102
}
330
2
100
AcDbSymbolTableRecord
100
AcDbLayerTableRecord
  2
PROFILE3
 70
     0
 62
     5
  6
Continuous
370
    60
390
F
  0
LAYER
  5
1AE2
102
{ACAD_XDICTIONARY
360
4614
102
}
330
2
100
AcDbSymbolTableRecord
100
AcDbLayerTableRecord
  2
CUTTING2
 70
     0
 62
     7
  6
AM_ISO08W050
370
    35
390
F
  0
LAYER
  5
1AE3
102
{ACAD_XDICTIONARY
360
4616
102
}
330
2
100
AcDbSymbolTableRecord
100
AcDbLayerTableRecord
  2
PHANTOM1
 70
     0
 62
     2
  6
PHANTOM2
370
    18
390
F
  0
LAYER
  5
1CA2
102
{ACAD_XDICTIONARY
360
4618
102
}
330
2
100
AcDbSymbolTableRecord
100
AcDbLayerTableRecord
  2
PHANTOM2
 70
     0
 62
     4
  6
PHANTOM2
370
    35
390
F
  0
LAYER
  5
1CA3
102
{ACAD_XDICTIONARY
360
461A
102
}
330
2
100
AcDbSymbolTableRecord
100
AcDbLayerTableRecord
  2
HIDDEN2
 70
     0
 62
     4
  6
HIDDEN
370
    35
390
F
  0
LAYER
  5
1CA4
102
{ACAD_XDICTIONARY
360
461C
102
}
330
2
100
AcDbSymbolTableRecord
100
AcDbLayerTableRecord
  2
SECTION2
 70
     0
 62
     4
  6
Continuous
370
    35
390
F
  0
LAYER
  5
1CA5
102
{ACAD_XDICTIONARY
360
461E
102
}
330
2
100
AcDbSymbolTableRecord
100
AcDbLayerTableRecord
  2
CENTER2
 70
     0
 62
     4
  6
CENTER2
370
    35
390
F
  0
LAYER
  5
393E
102
{ACAD_XDICTIONARY
360
4620
102
}
330
2
100
AcDbSymbolTableRecord
100
AcDbLayerTableRecord
  2
BALLOON
 70
     0
 62
     7
  6
Continuous
370
    18
390
F
1001
AcAecLayerStandard
1000

1000

  0
LAYER
  5
3C35
102
{ACAD_XDICTIONARY
360
4622
102
}
330
2
100
AcDbSymbolTableRecord
100
AcDbLayerTableRecord
  2
PARTSLIST
 70
     0
 62
     7
  6
Continuous
370
    18
390
F
1001
AcAecLayerStandard
1000

1000

  0
LAYER
  5
4044
102
{ACAD_XDICTIONARY
360
4624
102
}
330
2
100
AcDbSymbolTableRecord
100
AcDbLayerTableRecord
  2
FORMAT
 70
     0
 62
     7
  6
Continuous
370
    60
390
F
  0
LAYER
  5
4391
330
2
100
AcDbSymbolTableRecord
100
AcDbLayerTableRecord
  2
DEFPOINTS
 70
     0
 62
     7
  6
Continuous
290
     0
370
    -3
390
F
  0
LAYER
  5
4392
102
{ACAD_XDICTIONARY
360
4626
102
}
330
2
100
AcDbSymbolTableRecord
100
AcDbLayerTableRecord
  2
PV
 70
     0
 62
     7
  6
Continuous
370
    -3
390
F
  0
LAYER
  5
4393
102
{ACAD_XDICTIONARY
360
4628
102
}
330
2
100
AcDbSymbolTableRecord
100
AcDbLayerTableRecord
  2
FV
 70
     0
 62
     7
  6
Continuous
370
    -3
390
F
  0
ENDTAB
  0
TABLE
  2
STYLE
  5
3
330
0
100
AcDbSymbolTable
 70
     9
  0
STYLE
  5
11
330
3
100
AcDbSymbolTableRecord
100
AcDbTextStyleTableRecord
  2
STANDARD
 70
     0
 40
0.0
 41
1.0
 50
0.0
 71
     0
 42
2.5
  3
ISOCP.SHX
  4
extfont.shx
  0
STYLE
  5
54
330
3
100
AcDbSymbolTableRecord
100
AcDbTextStyleTableRecord
  2

 70
     1
 40
0.0
 41
1.0
 50
0.0
 71
     0
 42
2.5
  3
ltypeshp.shx
  4

  0
STYLE
  5
56
330
3
100
AcDbSymbolTableRecord
100
AcDbTextStyleTableRecord
  2
ACJISTS
 70
     0
 40
1.0
 41
1.0
 50
0.0
 71
     0
 42
2.5
  3
isocp.shx
  4
extfont.shx
  0
STYLE
  5
61
330
3
100
AcDbSymbolTableRecord
100
AcDbTextStyleTableRecord
  2
ACJISGDT
 70
     0
 40
0.0
 41
1.0
 50
0.0
 71
     0
 42
2.5
  3
amgdt.shx
  4
extfont.shx
  0
STYLE
  5
56B
330
3
100
AcDbSymbolTableRecord
100
AcDbTextStyleTableRecord
  2
ULVAC
 70
     0
 40
0.0
 41
1.0
 50
0.0
 71
     0
 42
4.0
  3
extslim2.shx
  4
extfont2.shx
  0
STYLE
  5
4394
330
3
100
AcDbSymbolTableRecord
100
AcDbTextStyleTableRecord
  2
MX_DIMTXSTY_2
 70
     0
 40
0.0
 41
1.05
 50
0.0
 71
     0
 42
14.58450022843481
  3
txt.shx
  4
extfont.shx
  0
STYLE
  5
4395
330
3
100
AcDbSymbolTableRecord
100
AcDbTextStyleTableRecord
  2

 70
     1
 40
0.0
 41
1.0
 50
0.0
 71
     0
 42
14.58450022843481
  3
genltshp.shx
  4

  0
STYLE
  5
4396
330
3
100
AcDbSymbolTableRecord
100
AcDbTextStyleTableRecord
  2
ACISOTS
 70
     0
 40
1.0
 41
1.0
 50
0.0
 71
     0
 42
14.58450022843481
  3
isocp.shx
  4
extfont.shx
  0
STYLE
  5
4397
330
3
100
AcDbSymbolTableRecord
100
AcDbTextStyleTableRecord
  2
ACISOGDT
 70
     0
 40
0.0
 41
1.0
 50
0.0
 71
     0
 42
14.58450022843481
  3
amgdt.shx
  4

  0
ENDTAB
  0
TABLE
  2
VIEW
  5
6
330
0
100
AcDbSymbolTable
 70
     6
  0
VIEW
  5
41C7
330
6
100
AcDbSymbolTableRecord
100
AcDbViewTableRecord
  2
AM_VIEW1
 70
     0
 40
178.9902280130293
 10
105.0
 20
207.5048859934853
 41
210.0
 11
0.0
 21
0.0
 31
1.0
 12
0.0
 22
0.0
 32
0.0
 42
50.0
 43
0.0
 44
0.0
 50
0.0
 71
    16
281
     0
 72
     0
  0
VIEW
  5
41C8
330
6
100
AcDbSymbolTableRecord
100
AcDbViewTableRecord
  2
AM_VIEW2
 70
     0
 40
178.9902280130293
 10
315.0
 20
207.5048859934853
 41
210.0
 11
0.0
 21
0.0
 31
1.0
 12
0.0
 22
0.0
 32
0.0
 42
50.0
 43
0.0
 44
0.0
 50
0.0
 71
    16
281
     0
 72
     0
  0
VIEW
  5
41C9
330
6
100
AcDbSymbolTableRecord
100
AcDbViewTableRecord
  2
AM_VIEW3
 70
     0
 40
178.9902280130293
 10
105.0
 20
89.49511400651466
 41
210.0
 11
0.0
 21
0.0
 31
1.0
 12
0.0
 22
0.0
 32
0.0
 42
50.0
 43
0.0
 44
0.0
 50
0.0
 71
    16
281
     0
 72
     0
  0
VIEW
  5
41CA
330
6
100
AcDbSymbolTableRecord
100
AcDbViewTableRecord
  2
AM_VIEW4
 70
     0
 40
178.9902280130293
 10
315.0
 20
89.49511400651466
 41
210.0
 11
0.0
 21
0.0
 31
1.0
 12
0.0
 22
0.0
 32
0.0
 42
50.0
 43
0.0
 44
0.0
 50
0.0
 71
    16
281
     0
 72
     0
  0
VIEW
  5
41CB
330
6
100
AcDbSymbolTableRecord
100
AcDbViewTableRecord
  2
AM_VIEW5
 70
     0
 40
178.9902280130293
 10
210.0
 20
148.5
 41
210.0
 11
0.0
 21
0.0
 31
1.0
 12
0.0
 22
0.0
 32
0.0
 42
50.0
 43
0.0
 44
0.0
 50
0.0
 71
    16
281
     0
 72
     0
  0
VIEW
  5
41CC
330
6
100
AcDbSymbolTableRecord
100
AcDbViewTableRecord
  2
AM_VIEW6
 70
     0
 40
357.9768762214984
 10
210.0
 20
148.5
 41
419.9957999999999
 11
0.0
 21
0.0
 31
1.0
 12
0.0
 22
0.0
 32
0.0
 42
50.0
 43
0.0
 44
0.0
 50
0.0
 71
    16
281
     0
 72
     0
  0
ENDTAB
  0
TABLE
  2
UCS
  5
7
330
0
100
AcDbSymbolTable
 70
     0
  0
ENDTAB
  0
TABLE
  2
APPID
  5
9
330
0
100
AcDbSymbolTable
 70
    51
  0
APPID
  5
12
330
9
100
AcDbSymbolTableRecord
100
AcDbRegAppTableRecord
  2
ACAD
 70
     0
  0
APPID
  5
30
330
9
100
AcDbSymbolTableRecord
100
AcDbRegAppTableRecord
  2
MCAD_NO_VIS
 70
     0
  0
APPID
  5
31
330
9
100
AcDbSymbolTableRecord
100
AcDbRegAppTableRecord
  2
ACAD_TEMP_GRAPHIC
 70
     0
  0
APPID
  5
44
330
9
100
AcDbSymbolTableRecord
100
AcDbRegAppTableRecord
  2
ACATTRIBSERVICES
 70
     0
  0
APPID
  5
F6
330
9
100
AcDbSymbolTableRecord
100
AcDbRegAppTableRecord
  2
AD_DRAW
 70
     0
  0
APPID
  5
114
330
9
100
AcDbSymbolTableRecord
100
AcDbRegAppTableRecord
  2
DESIGNERASSEMBLIES
 70
     0
  0
APPID
  5
118
330
9
100
AcDbSymbolTableRecord
100
AcDbRegAppTableRecord
  2
ACADM_DIM_EDIT
 70
     0
  0
APPID
  5
119
330
9
100
AcDbSymbolTableRecord
100
AcDbRegAppTableRecord
  2
AMDT_DM_ADJ
 70
     0
  0
APPID
  5
22A
330
9
100
AcDbSymbolTableRecord
100
AcDbRegAppTableRecord
  2
DCO15
 70
     0
  0
APPID
  5
24F
330
9
100
AcDbSymbolTableRecord
100
AcDbRegAppTableRecord
  2
CONTENTBLOCKDESCRIPTION
 70
     0
  0
APPID
  5
250
330
9
100
AcDbSymbolTableRecord
100
AcDbRegAppTableRecord
  2
ACAD_DSTYLE_DIMTEXT_FILL
 70
     0
  0
APPID
  5
251
330
9
100
AcDbSymbolTableRecord
100
AcDbRegAppTableRecord
  2
GENIUS_GENREC_14
 70
     0
  0
APPID
  5
252
330
9
100
AcDbSymbolTableRecord
100
AcDbRegAppTableRecord
  2
GENIUS_GENOBJ-N-REC_13
 70
     0
  0
APPID
  5
253
330
9
100
AcDbSymbolTableRecord
100
AcDbRegAppTableRecord
  2
GENIUS_GENODEF_13
 70
     0
  0
APPID
  5
254
330
9
100
AcDbSymbolTableRecord
100
AcDbRegAppTableRecord
  2
GENIUS_GENOENT_13
 70
     0
  0
APPID
  5
255
330
9
100
AcDbSymbolTableRecord
100
AcDbRegAppTableRecord
  2
GENIUS_GENOBJ-N-TIT_13
 70
     0
  0
APPID
  5
256
330
9
100
AcDbSymbolTableRecord
100
AcDbRegAppTableRecord
  2
GENIUS_GENOLIS_13
 70
     0
  0
APPID
  5
257
330
9
100
AcDbSymbolTableRecord
100
AcDbRegAppTableRecord
  2
GENIUS_GENTITLE_13
 70
     0
  0
APPID
  5
258
330
9
100
AcDbSymbolTableRecord
100
AcDbRegAppTableRecord
  2
GENIUS_GENOREF_13
 70
     0
  0
APPID
  5
259
330
9
100
AcDbSymbolTableRecord
100
AcDbRegAppTableRecord
  2
GENIUS_GENSCREG_15
 70
     0
  0
APPID
  5
25A
330
9
100
AcDbSymbolTableRecord
100
AcDbRegAppTableRecord
  2
GENIUS_GENOBJ-N-SDF_13
 70
     0
  0
APPID
  5
25B
330
9
100
AcDbSymbolTableRecord
100
AcDbRegAppTableRecord
  2
GENIUS_GENDTOL_13
 70
     0
  0
APPID
  5
D55
330
9
100
AcDbSymbolTableRecord
100
AcDbRegAppTableRecord
  2
ACAD_PSEXT
 70
     0
  0
APPID
  5
1A26
330
9
100
AcDbSymbolTableRecord
100
AcDbRegAppTableRecord
  2
GENIUS_GENBH_13
 70
     0
  0
APPID
  5
1A2C
330
9
100
AcDbSymbolTableRecord
100
AcDbRegAppTableRecord
  2
GENIUS_GENOBJ-NBEHI-BHF_13
 70
     0
  0
APPID
  5
1A2E
330
9
100
AcDbSymbolTableRecord
100
AcDbRegAppTableRecord
  2
GENIUS_GENOBJ-NBEHI-BHB_13
 70
     0
  0
APPID
  5
1A38
330
9
100
AcDbSymbolTableRecord
100
AcDbRegAppTableRecord
  2
GEVID1137384586
 70
     0
  0
APPID
  5
1A39
330
9
100
AcDbSymbolTableRecord
100
AcDbRegAppTableRecord
  2
GEVDC
 70
     0
  0
APPID
  5
1A4E
330
9
100
AcDbSymbolTableRecord
100
AcDbRegAppTableRecord
  2
GENIUS_GENOBJ-N-CEN_13
 70
     0
  0
APPID
  5
1A4F
330
9
100
AcDbSymbolTableRecord
100
AcDbRegAppTableRecord
  2
GENIUS_GENCEN_19
 70
     0
  0
APPID
  5
1A5F
330
9
100
AcDbSymbolTableRecord
100
AcDbRegAppTableRecord
  2
GEVID1137384587
 70
     0
  0
APPID
  5
1A60
330
9
100
AcDbSymbolTableRecord
100
AcDbRegAppTableRecord
  2
GEVCON
 70
     0
  0
APPID
  5
1A70
330
9
100
AcDbSymbolTableRecord
100
AcDbRegAppTableRecord
  2
GENIUS_GENOBJ-F-SCPASSM_13
 70
     0
  0
APPID
  5
380E
330
9
100
AcDbSymbolTableRecord
100
AcDbRegAppTableRecord
  2
ACAUTHENVIRON
 70
     0
  0
APPID
  5
3812
330
9
100
AcDbSymbolTableRecord
100
AcDbRegAppTableRecord
  2
AcDbDynamicBlockTrueName
 70
     0
  0
APPID
  5
3813
330
9
100
AcDbSymbolTableRecord
100
AcDbRegAppTableRecord
  2
AcDbDynamicBlockGUID
 70
     0
  0
APPID
  5
3815
330
9
100
AcDbSymbolTableRecord
100
AcDbRegAppTableRecord
  2
ACDBBLOCKREPETAG
 70
     0
  0
APPID
  5
393F
330
9
100
AcDbSymbolTableRecord
100
AcDbRegAppTableRecord
  2
AcAecLayerStandard
 70
     0
  0
APPID
  5
3DA4
330
9
100
AcDbSymbolTableRecord
100
AcDbRegAppTableRecord
  2
GEVID1176237129
 70
     0
  0
APPID
  5
3DAA
330
9
100
AcDbSymbolTableRecord
100
AcDbRegAppTableRecord
  2
GEVID1176237130
 70
     0
  0
APPID
  5
3DBC
330
9
100
AcDbSymbolTableRecord
100
AcDbRegAppTableRecord
  2
GEVID1176237132
 70
     0
  0
APPID
  5
3DE8
330
9
100
AcDbSymbolTableRecord
100
AcDbRegAppTableRecord
  2
GENIUS_GENFIL_13
 70
     0
  0
APPID
  5
3DEA
330
9
100
AcDbSymbolTableRecord
100
AcDbRegAppTableRecord
  2
GENIUS_GENOBJ-N-CHA_13
 70
     0
  0
APPID
  5
40A0
330
9
100
AcDbSymbolTableRecord
100
AcDbRegAppTableRecord
  2
ACAD_EXEMPT_FROM_CAD_STANDARDS
 70
     0
  0
APPID
  5
454E
330
9
100
AcDbSymbolTableRecord
100
AcDbRegAppTableRecord
  2
ACAD_DSTYLE_DIM_LINETYPE
 70
     0
  0
APPID
  5
454F
330
9
100
AcDbSymbolTableRecord
100
AcDbRegAppTableRecord
  2
ACAD_DSTYLE_DIM_EXT1_LINETYPE
 70
     0
  0
APPID
  5
4550
330
9
100
AcDbSymbolTableRecord
100
AcDbRegAppTableRecord
  2
ACAD_DSTYLE_DIM_EXT2_LINETYPE
 70
     0
  0
APPID
  5
4551
330
9
100
AcDbSymbolTableRecord
100
AcDbRegAppTableRecord
  2
ACAD_DSTYLE_DIMARC_LENGTH_SYMBOL
 70
     0
  0
APPID
  5
45F3
330
9
100
AcDbSymbolTableRecord
100
AcDbRegAppTableRecord
  2
ACAD_DSTYLE_DIMBREAK
 70
     0
  0
APPID
  5
45F4
330
9
100
AcDbSymbolTableRecord
100
AcDbRegAppTableRecord
  2
ACAD_DSTYLE_DIMJAG
 70
     0
  0
APPID
  5
469B
330
9
100
AcDbSymbolTableRecord
100
AcDbRegAppTableRecord
  2
ACAD_MLEADERVER
 70
     0
  0
ENDTAB
  0
TABLE
  2
DIMSTYLE
  5
A
330
0
100
AcDbSymbolTable
 70
    18
100
AcDbDimStyleTable
 71
     3
340
24E
340
1361
340
1348
  0
DIMSTYLE
105
24D
330
A
100
AcDbSymbolTableRecord
100
AcDbDimStyleTableRecord
  2
Standard
 70
     0
340
11
  0
DIMSTYLE
105
24E
330
A
100
AcDbSymbolTableRecord
100
AcDbDimStyleTableRecord
  2
ULVAC
 70
     0
 41
2.9
 42
1.269999980926513
 43
10.0
 44
1.200000047683715
 45
0.005
 73
     0
 74
     0
 77
     1
 78
     9
 79
     2
140
4.0
141
0.0
143
0.03937007874016
146
0.75
147
1.0
171
     4
172
     1
179
     2
271
     2
272
     2
274
     4
284
     8
288
     1
340
56B
341
69
342
69
371
    -1
372
    -1
1001
ACAD_DSTYLE_DIM_LINETYPE
1070
   380
1005
15
1001
ACAD_DSTYLE_DIM_EXT1_LINETYPE
1070
   381
1005
15
1001
ACAD_DSTYLE_DIM_EXT2_LINETYPE
1070
   382
1005
15
  0
DIMSTYLE
105
623
330
A
100
AcDbSymbolTableRecord
100
AcDbDimStyleTableRecord
  2
ULVAC$2
 70
     0
 41
2.9
 42
1.269999980926513
 43
10.0
 44
1.200000047683715
 73
     0
 74
     0
 77
     1
 78
     9
 79
     2
140
4.0
141
0.0
143
0.03937007874016
146
0.75
147
1.0
171
     4
172
     1
179
     2
274
     4
284
     8
340
56B
341
69
342
69
371
    -1
372
    -1
1001
ACAD_DSTYLE_DIM_LINETYPE
1070
   380
1005
15
1001
ACAD_DSTYLE_DIM_EXT1_LINETYPE
1070
   381
1005
15
1001
ACAD_DSTYLE_DIM_EXT2_LINETYPE
1070
   382
1005
15
  0
DIMSTYLE
105
68C
330
A
100
AcDbSymbolTableRecord
100
AcDbDimStyleTableRecord
  2
ULVAC$0
 70
     0
 41
2.9
 42
1.269999980926513
 43
10.0
 44
1.200000047683715
 45
0.005
 73
     0
 74
     0
 77
     1
 78
     9
140
4.0
141
0.0
143
0.03937007874016
146
0.75
147
1.0
171
     4
172
     1
179
     2
271
     2
272
     2
274
     4
284
     8
288
     1
340
56B
341
69
342
69
371
    -1
372
    -1
1001
ACAD_DSTYLE_DIMARC_LENGTH_SYMBOL
1070
   379
1070
     1
1001
ACAD_DSTYLE_DIM_LINETYPE
1070
   380
1005
15
1001
ACAD_DSTYLE_DIM_EXT1_LINETYPE
1070
   381
1005
15
1001
ACAD_DSTYLE_DIM_EXT2_LINETYPE
1070
   382
1005
15
  0
DIMSTYLE
105
1103
330
A
100
AcDbSymbolTableRecord
100
AcDbDimStyleTableRecord
  2
ULVAC$4
 70
     0
 41
2.9
 42
1.269999980926513
 43
10.0
 44
1.200000047683715
 45
0.005
 73
     0
 74
     0
 77
     1
 78
     9
140
4.0
141
0.0
143
0.03937007874016
146
0.75
147
1.0
171
     4
172
     1
179
     2
271
     2
272
     2
274
     4
284
     8
288
     1
289
     0
340
56B
341
69
342
69
371
    -1
372
    -1
1001
ACAD_DSTYLE_DIM_LINETYPE
1070
   380
1005
15
1001
ACAD_DSTYLE_DIM_EXT1_LINETYPE
1070
   381
1005
15
1001
ACAD_DSTYLE_DIM_EXT2_LINETYPE
1070
   382
1005
15
  0
DIMSTYLE
105
112A
330
A
100
AcDbSymbolTableRecord
100
AcDbDimStyleTableRecord
  2
ULVAC$6
 70
     0
 41
2.9
 42
1.269999980926513
 43
6.5
 44
1.200000047683715
 45
0.005
 73
     0
 74
     0
 77
     1
 78
     9
140
4.0
141
0.0
143
0.03937007874016
146
0.75
147
1.0
171
     4
172
     1
176
   256
179
     2
271
     2
272
     2
274
     4
284
     8
288
     1
340
56B
341
69
342
69
371
    -1
372
    -1
1001
ACAD_DSTYLE_DIM_LINETYPE
1070
   380
1005
15
1001
ACAD_DSTYLE_DIM_EXT1_LINETYPE
1070
   381
1005
15
1001
ACAD_DSTYLE_DIM_EXT2_LINETYPE
1070
   382
1005
15
  0
DIMSTYLE
105
113C
330
A
100
AcDbSymbolTableRecord
100
AcDbDimStyleTableRecord
  2
ULVAC$7
 70
     0
 41
2.9
 42
1.269999980926513
 43
10.0
 44
1.200000047683715
 73
     0
 74
     0
 77
     1
 78
     1
140
4.0
141
0.0
143
0.03937007874016
147
1.0
171
     4
172
     1
177
   256
179
     2
271
     2
272
     2
274
     4
288
     1
340
56B
341
69
342
69
371
    -1
1001
ACAD_DSTYLE_DIM_LINETYPE
1070
   380
1005
15
1001
ACAD_DSTYLE_DIM_EXT1_LINETYPE
1070
   381
1005
15
1001
ACAD_DSTYLE_DIM_EXT2_LINETYPE
1070
   382
1005
15
  0
DIMSTYLE
105
128D
330
A
100
AcDbSymbolTableRecord
100
AcDbDimStyleTableRecord
  2
ULVAC$3
 70
     0
 41
2.9
 42
1.269999980926513
 43
10.0
 44
1.200000047683715
 45
0.005
 73
     0
 74
     0
 77
     1
 78
     9
140
4.0
141
0.0
143
0.03937007874016
146
0.75
147
1.0
171
     4
172
     1
179
     2
271
     2
272
     2
274
     4
284
     8
288
     1
289
     0
340
56B
341
69
342
69
371
    -1
372
    -1
1001
ACAD_DSTYLE_DIM_LINETYPE
1070
   380
1005
15
1001
ACAD_DSTYLE_DIM_EXT1_LINETYPE
1070
   381
1005
15
1001
ACAD_DSTYLE_DIM_EXT2_LINETYPE
1070
   382
1005
15
  0
DIMSTYLE
105
1348
330
A
100
AcDbSymbolTableRecord
100
AcDbDimStyleTableRecord
  2
ULVAC$SH
 70
     0
 41
2.9
 42
1.269999980926513
 43
10.0
 44
1.200000047683715
 45
0.005
 73
     0
 74
     0
 77
     1
 78
     9
 79
     2
140
4.0
141
0.0
143
0.03937007874016
146
0.75
147
1.0
171
     4
172
     1
179
     2
271
     2
272
     2
274
     4
284
     8
288
     1
340
56B
341
69
342
69
371
    -1
372
    -1
1001
ACAD_DSTYLE_DIM_LINETYPE
1070
   380
1005
15
1001
ACAD_DSTYLE_DIM_EXT1_LINETYPE
1070
   381
1005
15
1001
ACAD_DSTYLE_DIM_EXT2_LINETYPE
1070
   382
1005
15
  0
DIMSTYLE
105
1361
330
A
100
AcDbSymbolTableRecord
100
AcDbDimStyleTableRecord
  2
ULVAC$SF
 70
     0
 41
2.9
 42
1.269999980926513
 43
10.0
 44
1.200000047683715
 45
0.005
 73
     0
 74
     0
 77
     1
 78
     9
 79
     2
140
4.0
141
0.0
143
0.03937007874016
146
0.75
147
1.0
171
     4
172
     1
179
     2
271
     2
272
     2
274
     4
284
     8
288
     1
340
56B
341
69
342
69
371
    -1
372
    -1
1001
ACAD_DSTYLE_DIM_LINETYPE
1070
   380
1005
15
1001
ACAD_DSTYLE_DIM_EXT1_LINETYPE
1070
   381
1005
15
1001
ACAD_DSTYLE_DIM_EXT2_LINETYPE
1070
   382
1005
15
  0
DIMSTYLE
105
4398
330
A
100
AcDbSymbolTableRecord
100
AcDbDimStyleTableRecord
  2
MXDIMSTYLE
 70
     0
 40
3.500000208616268
 41
2.5
 42
1.269999980926513
 43
3.75
 44
1.200000047683715
 73
     0
 74
     0
 77
     1
 78
     8
140
4.166999816894531
141
2.5
143
0.03937007874016
144
0.2857142686843872
147
1.0
171
     4
172
     1
274
     4
288
     1
340
56B
  0
DIMSTYLE
105
4399
102
{ACAD_REACTORS
330
45E2
102
}
330
A
100
AcDbSymbolTableRecord
100
AcDbDimStyleTableRecord
  2
AM_ISO
 70
     0
  4
"
 41
2.5
 42
1.0
 43
10.0
 44
1.0
 47
0.1
 48
0.1
 73
     0
 74
     0
 77
     1
 78
     8
 79
     2
140
3.5
141
0.0
143
0.0393701
146
0.71
147
1.5
172
     1
176
   256
177
   256
178
     2
271
     2
272
     3
274
     4
283
     0
284
     8
340
56B
371
    -1
372
    -1
1001
ACAD_DSTYLE_DIMARC_LENGTH_SYMBOL
1070
   379
1070
     1
  0
DIMSTYLE
105
439A
330
A
100
AcDbSymbolTableRecord
100
AcDbDimStyleTableRecord
  2
AM_ISO$3
 70
     0
  4
"
 41
2.5
 42
1.0
 43
10.0
 44
1.0
 47
0.1
 48
0.1
 73
     0
 77
     1
 78
     8
 79
     2
140
3.5
141
0.0
143
0.0393701
146
0.71
147
1.5
176
   256
177
   256
178
     2
271
     2
272
     3
274
     4
283
     0
284
     8
288
     1
289
     0
340
56B
371
    -1
372
    -1
1001
ACAD_DSTYLE_DIMARC_LENGTH_SYMBOL
1070
   379
1070
     1
  0
DIMSTYLE
105
439B
330
A
100
AcDbSymbolTableRecord
100
AcDbDimStyleTableRecord
  2
AM_ISO$4
 70
     0
  4
"
 41
2.5
 42
1.0
 43
10.0
 44
1.0
 47
0.1
 48
0.1
 73
     0
 77
     1
 78
     8
 79
     2
140
3.5
141
0.0
143
0.0393701
146
0.71
147
1.5
176
   256
177
   256
178
     2
271
     2
272
     3
274
     4
283
     0
284
     8
288
     1
289
     0
340
56B
371
    -1
372
    -1
1001
ACAD_DSTYLE_DIMARC_LENGTH_SYMBOL
1070
   379
1070
     1
  0
DIMSTYLE
105
439C
330
A
100
AcDbSymbolTableRecord
100
AcDbDimStyleTableRecord
  2
AM_ISO$6
 70
     0
  4
"
 41
2.5
 42
1.0
 43
10.0
 44
1.0
 47
0.1
 48
0.1
 73
     0
 74
     0
 78
     8
 79
     2
140
3.5
141
0.0
143
0.0393701
146
0.71
147
1.5
172
     1
176
   256
177
   256
178
     2
271
     2
272
     3
274
     4
283
     0
284
     8
340
56B
371
    -1
372
    -1
1001
ACAD_DSTYLE_DIMARC_LENGTH_SYMBOL
1070
   379
1070
     1
  0
DIMSTYLE
105
439D
330
A
100
AcDbSymbolTableRecord
100
AcDbDimStyleTableRecord
  2
AM_ISO$7
 70
     0
  4
"
 41
2.5
 42
1.0
 43
10.0
 44
1.0
 47
0.1
 48
0.1
 73
     0
 74
     0
 77
     1
 78
     8
 79
     2
140
5.0
141
0.0
143
0.0393701
146
0.71
147
1.5
172
     1
176
   256
177
   256
178
     2
271
     2
272
     3
274
     4
283
     0
284
     8
340
56B
371
    -1
372
    -1
1001
ACAD_DSTYLE_DIMARC_LENGTH_SYMBOL
1070
   379
1070
     1
  0
DIMSTYLE
105
439E
330
A
100
AcDbSymbolTableRecord
100
AcDbDimStyleTableRecord
  2
AM_ISO$SF
 70
     0
  4
"
 41
2.5
 42
1.0
 43
10.0
 44
1.0
 47
0.1
 48
0.1
 73
     0
 74
     0
 75
     1
 76
     1
 77
     1
 78
     8
 79
     2
140
3.5
141
0.0
143
0.0393701
146
0.71
147
1.5
172
     1
176
   256
177
   256
178
     2
271
     2
272
     3
274
     4
283
     0
284
     8
340
56B
371
    -1
372
    -1
1001
ACAD_DSTYLE_DIMARC_LENGTH_SYMBOL
1070
   379
1070
     1
  0
DIMSTYLE
105
439F
330
A
100
AcDbSymbolTableRecord
100
AcDbDimStyleTableRecord
  2
AM_ISO$SH
 70
     0
  4
"
 41
2.5
 42
1.0
 43
10.0
 44
1.0
 47
0.1
 48
0.1
 73
     0
 74
     0
 75
     1
 76
     1
 77
     1
 78
     8
 79
     2
140
3.5
141
0.0
143
0.0393701
144
2.0
146
0.71
147
1.5
172
     1
173
     1
176
   256
177
   256
178
     2
271
     2
272
     3
274
     4
283
     0
284
     8
340
56B
343
4388
371
    -1
372
    -1
1001
ACAD_DSTYLE_DIMARC_LENGTH_SYMBOL
1070
   379
1070
     1
  0
ENDTAB
  0
TABLE
  2
BLOCK_RECORD
  5
1
330
0
100
AcDbSymbolTable
 70
    16
  0
BLOCK_RECORD
  5
1F
102
{ACAD_XDICTIONARY
360
82
102
}
330
1
100
AcDbSymbolTableRecord
100
AcDbBlockTableRecord
  2
*Model_Space
340
22
  0
BLOCK_RECORD
  5
1B
330
1
100
AcDbSymbolTableRecord
100
AcDbBlockTableRecord
  2
*Paper_Space
340
1E
  0
BLOCK_RECORD
  5
23
330
1
100
AcDbSymbolTableRecord
100
AcDbBlockTableRecord
  2
*Paper_Space0
340
26
  0
BLOCK_RECORD
  5
69
330
1
100
AcDbSymbolTableRecord
100
AcDbBlockTableRecord
  2
_Open30
340
0
102
{BLKREFS
331
4375
331
4376
331
4381
331
4382
331
4531
331
4532
331
453A
331
453B
102
}
  0
BLOCK_RECORD
  5
2851
102
{ACAD_XDICTIONARY
360
380F
102
}
330
1
100
AcDbSymbolTableRecord
100
AcDbBlockTableRecord
  2
ULVAC_ballon
340
0
310
2800000020000000200000000100080000000000000400000000000000000000000000000000000000000000000080000080000000808000800000008000800080800000C0C0C000C0DCC000F0CAA6000020400000206000002080000020A0000020C0000020E00000400000004020000040400000406000004080000040A0
310
000040C0000040E00000600000006020000060400000606000006080000060A0000060C0000060E00000800000008020000080400000806000008080000080A0000080C0000080E00000A0000000A0200000A0400000A0600000A0800000A0A00000A0C00000A0E00000C0000000C0200000C0400000C0600000C0800000C0
310
A00000C0C00000C0E00000E0000000E0200000E0400000E0600000E0800000E0A00000E0C00000E0E00040000000400020004000400040006000400080004000A0004000C0004000E00040200000402020004020400040206000402080004020A0004020C0004020E000404000004040200040404000404060004040800040
310
40A0004040C0004040E00040600000406020004060400040606000406080004060A0004060C0004060E00040800000408020004080400040806000408080004080A0004080C0004080E00040A0000040A0200040A0400040A0600040A0800040A0A00040A0C00040A0E00040C0000040C0200040C0400040C0600040C08000
310
40C0A00040C0C00040C0E00040E0000040E0200040E0400040E0600040E0800040E0A00040E0C00040E0E00080000000800020008000400080006000800080008000A0008000C0008000E00080200000802020008020400080206000802080008020A0008020C0008020E00080400000804020008040400080406000804080
310
008040A0008040C0008040E00080600000806020008060400080606000806080008060A0008060C0008060E00080800000808020008080400080806000808080008080A0008080C0008080E00080A0000080A0200080A0400080A0600080A0800080A0A00080A0C00080A0E00080C0000080C0200080C0400080C0600080C0
310
800080C0A00080C0C00080C0E00080E0000080E0200080E0400080E0600080E0800080E0A00080E0C00080E0E000C0000000C0002000C0004000C0006000C0008000C000A000C000C000C000E000C0200000C0202000C0204000C0206000C0208000C020A000C020C000C020E000C0400000C0402000C0404000C0406000C0
310
408000C040A000C040C000C040E000C0600000C0602000C0604000C0606000C0608000C060A000C060C000C060E000C0800000C0802000C0804000C0806000C0808000C080A000C080C000C080E000C0A00000C0A02000C0A04000C0A06000C0A08000C0A0A000C0A0C000C0A0E000C0C00000C0C02000C0C04000C0C06000
310
C0C08000C0C0A000F0FBFF00A4A0A000808080000000FF0000FF000000FFFF00FF000000FF00FF00FFFF0000FFFFFF00000000000000000000000000000000000000000000000000000000000000000000000000000000000000000000000000000000000000000000000000000000000000000000000000000000FFFFFFFF
310
FFFFFFFFFFFF0000000000000000000000000000000000000000FFFF00000000000000000000FFFF0000000000000000000000000000000000FF0000000000000000000000000000FF000000000000000000000000000000FF00000000000000000000000000000000FF000000000000000000000000FFFF00000000000000
310
0000000000000000000000FFFF000000000000000000FF00000000000000000000000000000000000000000000FF0000000000000000FF00000000000000000000000000000000000000000000FF00000000000000FF000000000000000000000000000000000000000000000000FF000000000000FF000000000000000000
310
000000000000000000000000000000FF000000000000FFFFFFFF0000000000FF00000000FFFFFFFFFF00FF0000FF00FFFF00000000FF0000FF000000000000FF00000000FF0000000000FF0000FF00FFFF00000000FF0000FF000000000000FF00000000FF0000000000FF00FFFF00FFFF000000FF000000FF000000000000
310
FF00000000FF0000000000FF00FF00FFFF00FF0000FF000000FF000000000000FF00000000FF0000000000FF00FF00FFFF00FF0000FF000000FF000000000000FF00000000FFFFFFFFFF00FFFF0000FFFF00FF000000FF0000FF000000000000FF00000000FF0000000000FFFF0000FFFFFF00000000FF0000FF0000000000
310
00FF00000000FF0000000000FFFF000000FFFF00000000FF0000FF000000000000FF00000000FF0000000000FF00000000FFFF0000000000FFFFFFFF000000FFFFFFFFFF0000FFFFFFFFFF00FF00000000FF000000000000FF000000000000000000000000000000000000000000000000FF000000000000FF000000000000
310
000000000000000000000000000000000000FF00000000000000FF00000000000000000000000000000000000000000000FF0000000000000000FF00000000000000000000000000000000000000000000FF000000000000000000FFFF000000000000000000000000000000000000FFFF000000000000000000000000FF00
310
000000000000000000000000000000FF000000000000000000000000000000FF0000000000000000000000000000FF0000000000000000000000000000000000FFFF00000000000000000000FFFF0000000000000000000000000000000000000000FFFFFFFFFFFFFFFFFFFF00000000000000000000000000000000000000
310
0000000000000000000000000000000000000000000000000000000000000000000000000000000000000000000000000000000000000000
102
{BLKREFS
331
419F
102
}
1001
AcDbDynamicBlockGUID
1000
{097EF819-7202-4916-9A65-16771620EB1C}
1001
ACDBBLOCKREPETAG
1070
     1
1071
        2
1001
ACAD
1000
DesignCenter Data
1002
{
1070
     1
1070
     4
1002
}
  0
BLOCK_RECORD
  5
4045
102
{ACAD_XDICTIONARY
360
4096
102
}
330
1
100
AcDbSymbolTableRecord
100
AcDbBlockTableRecord
  2
ZZWAKUA3Y-ULVAC_03
340
0
  0
BLOCK_RECORD
  5
40A1
102
{ACAD_XDICTIONARY
360
41A2
102
}
330
1
100
AcDbSymbolTableRecord
100
AcDbBlockTableRecord
  2
ULVAC_TITLE_05
340
0
  0
BLOCK_RECORD
  5
41CE
330
1
100
AcDbSymbolTableRecord
100
AcDbBlockTableRecord
  2
BW-14_SC_1
340
0
102
{BLKREFS
331
43D0
102
}
  0
BLOCK_RECORD
  5
4222
330
1
100
AcDbSymbolTableRecord
100
AcDbBlockTableRecord
  2
BW-14_SC_2
340
0
102
{BLKREFS
331
43CF
102
}
  0
BLOCK_RECORD
  5
4338
330
1
100
AcDbSymbolTableRecord
100
AcDbBlockTableRecord
  2
BW-14_SC_3
340
0
102
{BLKREFS
331
43CE
102
}
  0
BLOCK_RECORD
  5
4388
330
1
100
AcDbSymbolTableRecord
100
AcDbBlockTableRecord
  2
GENAXEH
340
0
  0
ENDTAB
  0
ENDSEC
  0
SECTION
  2
BLOCKS
  0
BLOCK
  5
20
330
1F
100
AcDbEntity
  8
0
100
AcDbBlockBegin
  2
*Model_Space
 70
     0
 10
0.0
 20
0.0
 30
0.0
  3
*Model_Space
  1

  0
ENDBLK
  5
21
330
1F
100
AcDbEntity
  8
0
100
AcDbBlockEnd
  0
BLOCK
  5
1C
330
1B
100
AcDbEntity
 67
     1
  8
0
100
AcDbBlockBegin
  2
*Paper_Space
 70
     0
 10
0.0
 20
0.0
 30
0.0
  3
*Paper_Space
  1

  0
ENDBLK
  5
1D
330
1B
100
AcDbEntity
 67
     1
  8
0
100
AcDbBlockEnd
  0
BLOCK
  5
24
330
23
100
AcDbEntity
 67
     1
  8
0
100
AcDbBlockBegin
  2
*Paper_Space0
 70
     0
 10
0.0
 20
0.0
 30
0.0
  3
*Paper_Space0
  1

  0
ENDBLK
  5
25
330
23
100
AcDbEntity
 67
     1
  8
0
100
AcDbBlockEnd
  0
BLOCK
  5
6D
330
69
100
AcDbEntity
  8
0
100
AcDbBlockBegin
  2
_Open30
 70
     0
 10
0.0
 20
0.0
 30
0.0
  3
_Open30
  1

  0
LINE
  5
6A
330
69
100
AcDbEntity
  8
0
  6
ByBlock
 62
     0
370
    -2
100
AcDbLine
 10
-1.0
 20
0.26794919
 30
0.0
 11
0.0
 21
0.0
 31
0.0
  0
LINE
  5
6B
330
69
100
AcDbEntity
  8
0
  6
ByBlock
 62
     0
370
    -2
100
AcDbLine
 10
0.0
 20
0.0
 30
0.0
 11
-1.0
 21
-0.26794919
 31
0.0
  0
LINE
  5
6C
330
69
100
AcDbEntity
  8
0
  6
ByBlock
 62
     0
370
    -2
100
AcDbLine
 10
0.0
 20
0.0
 30
0.0
 11
-1.0
 21
0.0
 31
0.0
  0
ENDBLK
  5
6E
330
69
100
AcDbEntity
  8
0
100
AcDbBlockEnd
  0
BLOCK
  5
2852
330
2851
100
AcDbEntity
  8
0
100
AcDbBlockBegin
  2
ULVAC_ballon
 70
     2
 10
0.0
 20
0.0
 30
0.0
  3
ULVAC_ballon
  1

  0
CIRCLE
  5
3F7C
330
2851
100
AcDbEntity
  8
0
  6
ByBlock
 62
     0
370
    -2
100
AcDbCircle
 10
0.0
 20
0.0
 30
0.0
 40
5.0
1001
ACDBBLOCKREPETAG
1070
     1
1071
        0
1005
3F7C
  0
ATTDEF
  5
3F7D
330
2851
100
AcDbEntity
  8
0
  6
ByBlock
 62
     0
370
    -2
100
AcDbText
 10
-0.0000000000000001
 20
-2.0
 30
0.0
 40
4.0
  1

 41
0.76
  7
ULVAC
 72
     1
 11
0.0
 21
0.0
 31
0.0
100
AcDbAttributeDefinition
  3
部番
  2
ITEM
 70
     0
 74
     2
1001
ACDBBLOCKREPETAG
1070
     1
1071
        1
1005
0
  0
ENDBLK
  5
2853
330
2851
100
AcDbEntity
  8
0
100
AcDbBlockEnd
  0
BLOCK
  5
4098
330
4045
100
AcDbEntity
  8
0
 48
0.5
100
AcDbBlockBegin
  2
ZZWAKUA3Y-ULVAC_03
 70
     0
 10
0.0
 20
0.0
 30
0.0
  3
ZZWAKUA3Y-ULVAC_03
  1

  0
TEXT
  5
4046
330
4045
100
AcDbEntity
  8
FORMAT
 62
     7
370
    18
100
AcDbText
 10
307.7956224643127
 20
49.10392741813169
 30
0.0
 40
4.0
  1
A3
 50
0.76
 41
0.76
  7
ULVAC
 72
     4
 11
310.0
 21
50.99999999999999
 31
0.0
100
AcDbText
  0
LINE
  5
4047
330
4045
100
AcDbEntity
  8
FORMAT
 62
     7
370
    60
100
AcDbLine
 10
25.00000000000022
 20
287.0000000000004
 30
0.0
 11
409.9999999999998
 21
287.0
 31
0.0
  0
LINE
  5
4048
330
4045
100
AcDbEntity
  8
FORMAT
 62
     7
370
    60
100
AcDbLine
 10
409.9999999999998
 20
287.0
 30
0.0
 11
410.0000000000001
 21
10.0
 31
0.0
  0
LINE
  5
4049
330
4045
100
AcDbEntity
  8
FORMAT
 62
     7
370
    60
100
AcDbLine
 10
410.0000000000001
 20
10.0
 30
0.0
 11
25.00000000000028
 21
9.999999999999335
 31
0.0
  0
LINE
  5
404A
330
4045
100
AcDbEntity
  8
FORMAT
 62
     7
370
    60
100
AcDbLine
 10
25.00000000000032
 20
9.999999999999335
 30
0.0
 11
25.00000000000022
 21
287.0000000000004
 31
0.0
  0
LINE
  5
404B
330
4045
100
AcDbEntity
  8
FORMAT
 62
     7
370
    18
100
AcDbLine
 10
407.5000000000001
 20
122.0000000000001
 30
0.0
 11
410.0
 21
122.0000000000001
 31
0.0
  0
LINE
  5
404C
330
4045
100
AcDbEntity
  8
FORMAT
 62
     7
370
    18
100
AcDbLine
 10
410.0
 20
117.0000000000001
 30
0.0
 11
408.4999999999999
 21
117.0000000000001
 31
0.0
  0
LINE
  5
404D
330
4045
100
AcDbEntity
  8
FORMAT
 62
     7
370
    18
100
AcDbLine
 10
407.5000000000001
 20
112.0000000000001
 30
0.0
 11
410.0
 21
112.0000000000001
 31
0.0
  0
LINE
  5
404E
330
4045
100
AcDbEntity
  8
FORMAT
 62
     7
370
    18
100
AcDbLine
 10
410.0
 20
107.0
 30
0.0
 11
408.4999999999999
 21
107.0
 31
0.0
  0
LINE
  5
404F
330
4045
100
AcDbEntity
  8
FORMAT
 62
     7
370
    18
100
AcDbLine
 10
410.0
 20
102.0000000000001
 30
0.0
 11
407.5000000000001
 21
102.0000000000001
 31
0.0
  0
LINE
  5
4050
330
4045
100
AcDbEntity
  8
FORMAT
 62
     7
370
    18
100
AcDbLine
 10
408.4999999999999
 20
97.00000000000013
 30
0.0
 11
410.0
 21
97.00000000000013
 31
0.0
  0
LINE
  5
4051
330
4045
100
AcDbEntity
  8
FORMAT
 62
     7
370
    18
100
AcDbLine
 10
410.0
 20
92.00000000000015
 30
0.0
 11
407.5000000000001
 21
92.00000000000013
 31
0.0
  0
TEXT
  5
4052
330
4045
100
AcDbEntity
  8
FORMAT
 62
     7
 60
     1
370
    18
100
AcDbText
 10
409.9999999999998
 20
287.0
 30
0.0
 40
4.0
  1
!GENTITLE-RU
  7
ULVAC
100
AcDbText
  0
TEXT
  5
4053
330
4045
100
AcDbEntity
  8
FORMAT
 62
     7
 60
     1
370
    18
100
AcDbText
 10
410.0000000000001
 20
10.0
 30
0.0
 40
4.0
  1
!GENTITLE-INSERT
  7
ULVAC
100
AcDbText
  0
TEXT
  5
4054
330
4045
100
AcDbEntity
  8
FORMAT
 62
     7
 60
     1
370
    18
100
AcDbText
 10
25.00000000000032
 20
9.999999999999335
 30
0.0
 40
4.0
  1
!GENTITLE-LL
  7
ULVAC
100
AcDbText
  0
TEXT
  5
4055
330
4045
100
AcDbEntity
  8
FORMAT
 62
     7
 60
     1
370
    18
100
AcDbText
 10
420.0
 20
297.0
 30
0.0
 40
4.0
  1
!GENTITLE-MAX
  7
ULVAC
100
AcDbText
  0
LINE
  5
4056
330
4045
100
AcDbEntity
  8
FORMAT
 62
     7
370
    18
100
AcDbLine
 10
210.0
 20
5.0
 30
0.0
 11
210.0
 21
15.0
 31
0.0
  0
LINE
  5
4057
330
4045
100
AcDbEntity
  8
FORMAT
 62
     7
370
    18
100
AcDbLine
 10
52.50000000000031
 20
9.999999999999381
 30
0.0
 11
52.50000000000031
 21
4.999999999999382
 31
0.0
  0
TEXT
  5
4058
330
4045
100
AcDbEntity
  8
FORMAT
 62
     7
370
    18
100
AcDbText
 10
37.41666666666701
 20
5.133333333332695
 30
0.0
 40
4.0
  1
1
  7
ULVAC
 72
     4
 11
38.75000000000034
 21
6.999999999999361
 31
0.0
100
AcDbText
  0
LINE
  5
4059
330
4045
100
AcDbEntity
  8
FORMAT
 62
     7
370
    18
100
AcDbLine
 10
105.0000000000003
 20
9.999999999999381
 30
0.0
 11
105.0000000000003
 21
4.999999999999382
 31
0.0
  0
LINE
  5
405A
330
4045
100
AcDbEntity
  8
FORMAT
 62
     7
370
    18
100
AcDbLine
 10
157.5000000000003
 20
9.999999999999381
 30
0.0
 11
157.5000000000003
 21
4.999999999999382
 31
0.0
  0
LINE
  5
405B
330
4045
100
AcDbEntity
  8
FORMAT
 62
     7
370
    18
100
AcDbLine
 10
262.5000000000003
 20
9.999999999999381
 30
0.0
 11
262.5000000000003
 21
4.999999999999382
 31
0.0
  0
LINE
  5
405C
330
4045
100
AcDbEntity
  8
FORMAT
 62
     7
370
    18
100
AcDbLine
 10
315.0000000000003
 20
9.999999999999381
 30
0.0
 11
315.0000000000003
 21
4.999999999999382
 31
0.0
  0
LINE
  5
405D
330
4045
100
AcDbEntity
  8
FORMAT
 62
     7
370
    18
100
AcDbLine
 10
367.5000000000003
 20
9.999999999999381
 30
0.0
 11
367.5000000000003
 21
4.999999999999382
 31
0.0
  0
TEXT
  5
405E
330
4045
100
AcDbEntity
  8
FORMAT
 62
     7
370
    18
100
AcDbText
 10
77.41666666666699
 20
5.133333333332695
 30
0.0
 40
4.0
  1
2
  7
ULVAC
 72
     4
 11
78.75000000000031
 21
6.999999999999361
 31
0.0
100
AcDbText
  0
TEXT
  5
405F
330
4045
100
AcDbEntity
  8
FORMAT
 62
     7
370
    18
100
AcDbText
 10
129.9166666666669
 20
5.133333333332695
 30
0.0
 40
4.0
  1
3
  7
ULVAC
 72
     4
 11
131.2500000000003
 21
6.999999999999361
 31
0.0
100
AcDbText
  0
TEXT
  5
4060
330
4045
100
AcDbEntity
  8
FORMAT
 62
     7
370
    18
100
AcDbText
 10
182.416666666667
 20
5.133333333332695
 30
0.0
 40
4.0
  1
4
  7
ULVAC
 72
     4
 11
183.7500000000003
 21
6.999999999999361
 31
0.0
100
AcDbText
  0
TEXT
  5
4061
330
4045
100
AcDbEntity
  8
FORMAT
 62
     7
370
    18
100
AcDbText
 10
234.916666666667
 20
5.133333333332695
 30
0.0
 40
4.0
  1
5
  7
ULVAC
 72
     4
 11
236.2500000000003
 21
6.999999999999361
 31
0.0
100
AcDbText
  0
TEXT
  5
4062
330
4045
100
AcDbEntity
  8
FORMAT
 62
     7
370
    18
100
AcDbText
 10
287.416666666667
 20
5.133333333332695
 30
0.0
 40
4.0
  1
6
  7
ULVAC
 72
     4
 11
288.7500000000003
 21
6.999999999999361
 31
0.0
100
AcDbText
  0
TEXT
  5
4063
330
4045
100
AcDbEntity
  8
FORMAT
 62
     7
370
    18
100
AcDbText
 10
339.9166666666671
 20
5.133333333332695
 30
0.0
 40
4.0
  1
7
  7
ULVAC
 72
     4
 11
341.2500000000004
 21
6.999999999999361
 31
0.0
100
AcDbText
  0
TEXT
  5
4064
330
4045
100
AcDbEntity
  8
FORMAT
 62
     7
370
    18
100
AcDbText
 10
392.416666666667
 20
5.133333333332695
 30
0.0
 40
4.0
  1
8
  7
ULVAC
 72
     4
 11
393.7500000000003
 21
6.999999999999361
 31
0.0
100
AcDbText
  0
LINE
  5
4065
330
4045
100
AcDbEntity
  8
FORMAT
 62
     7
370
    18
100
AcDbLine
 10
209.9999999999999
 20
291.9999999999998
 30
0.0
 11
209.9999999999999
 21
281.9999999999998
 31
0.0
  0
LINE
  5
4066
330
4045
100
AcDbEntity
  8
FORMAT
 62
     7
370
    18
100
AcDbLine
 10
52.50000000000015
 20
287.0000000000002
 30
0.0
 11
52.50000000000015
 21
292.0000000000002
 31
0.0
  0
LINE
  5
4067
330
4045
100
AcDbEntity
  8
FORMAT
 62
     7
370
    18
100
AcDbLine
 10
105.0000000000001
 20
287.0000000000003
 30
0.0
 11
105.0000000000001
 21
292.0000000000003
 31
0.0
  0
LINE
  5
4068
330
4045
100
AcDbEntity
  8
FORMAT
 62
     7
370
    18
100
AcDbLine
 10
157.5000000000001
 20
287.0000000000004
 30
0.0
 11
157.5000000000001
 21
292.0000000000003
 31
0.0
  0
LINE
  5
4069
330
4045
100
AcDbEntity
  8
FORMAT
 62
     7
370
    18
100
AcDbLine
 10
262.5000000000002
 20
287.0000000000004
 30
0.0
 11
262.5000000000002
 21
292.0000000000005
 31
0.0
  0
LINE
  5
406A
330
4045
100
AcDbEntity
  8
FORMAT
 62
     7
370
    18
100
AcDbLine
 10
315.0000000000002
 20
287.0000000000005
 30
0.0
 11
315.0000000000002
 21
292.0000000000005
 31
0.0
  0
LINE
  5
406B
330
4045
100
AcDbEntity
  8
FORMAT
 62
     7
370
    18
100
AcDbLine
 10
367.5000000000002
 20
287.0000000000006
 30
0.0
 11
367.5000000000002
 21
292.0000000000006
 31
0.0
  0
TEXT
  5
406C
330
4045
100
AcDbEntity
  8
FORMAT
 62
     7
370
    18
100
AcDbText
 10
37.41666666666684
 20
288.1333333333335
 30
0.0
 40
4.0
  1
1
 50
0.0000000000000677
  7
ULVAC
 72
     4
 11
38.75000000000017
 21
290.0000000000002
 31
0.0
100
AcDbText
  0
TEXT
  5
406D
330
4045
100
AcDbEntity
  8
FORMAT
 62
     7
370
    18
100
AcDbText
 10
77.41666666666683
 20
288.1333333333336
 30
0.0
 40
4.0
  1
2
 50
0.0000000000000677
  7
ULVAC
 72
     4
 11
78.75000000000015
 21
290.0000000000003
 31
0.0
100
AcDbText
  0
TEXT
  5
406E
330
4045
100
AcDbEntity
  8
FORMAT
 62
     7
370
    18
100
AcDbText
 10
129.9166666666667
 20
288.1333333333336
 30
0.0
 40
4.0
  1
3
 50
0.0000000000000677
  7
ULVAC
 72
     4
 11
131.2500000000001
 21
290.0000000000003
 31
0.0
100
AcDbText
  0
TEXT
  5
406F
330
4045
100
AcDbEntity
  8
FORMAT
 62
     7
370
    18
100
AcDbText
 10
182.4166666666667
 20
288.1333333333337
 30
0.0
 40
4.0
  1
4
 50
0.0000000000000677
  7
ULVAC
 72
     4
 11
183.7500000000001
 21
290.0000000000004
 31
0.0
100
AcDbText
  0
TEXT
  5
4070
330
4045
100
AcDbEntity
  8
FORMAT
 62
     7
370
    18
100
AcDbText
 10
234.9166666666668
 20
288.1333333333338
 30
0.0
 40
4.0
  1
5
 50
0.0000000000000677
  7
ULVAC
 72
     4
 11
236.2500000000002
 21
290.0000000000005
 31
0.0
100
AcDbText
  0
TEXT
  5
4071
330
4045
100
AcDbEntity
  8
FORMAT
 62
     7
370
    18
100
AcDbText
 10
287.4166666666669
 20
288.1333333333338
 30
0.0
 40
4.0
  1
6
 50
0.0000000000000677
  7
ULVAC
 72
     4
 11
288.7500000000002
 21
290.0000000000005
 31
0.0
100
AcDbText
  0
TEXT
  5
4072
330
4045
100
AcDbEntity
  8
FORMAT
 62
     7
370
    18
100
AcDbText
 10
339.9166666666669
 20
288.133333333334
 30
0.0
 40
4.0
  1
7
 50
0.0000000000000677
  7
ULVAC
 72
     4
 11
341.2500000000002
 21
290.0000000000006
 31
0.0
100
AcDbText
  0
TEXT
  5
4073
330
4045
100
AcDbEntity
  8
FORMAT
 62
     7
370
    18
100
AcDbText
 10
392.4166666666669
 20
288.133333333334
 30
0.0
 40
4.0
  1
8
 50
0.0000000000000677
  7
ULVAC
 72
     4
 11
393.7500000000002
 21
290.0000000000006
 31
0.0
100
AcDbText
  0
LINE
  5
4074
330
4045
100
AcDbEntity
  8
FORMAT
 62
     7
370
    18
100
AcDbLine
 10
25.00000000000032
 20
9.999999999999335
 30
0.0
 11
20.00000000000032
 21
9.999999999999335
 31
0.0
  0
LINE
  5
4075
330
4045
100
AcDbEntity
  8
FORMAT
 62
     7
370
    18
100
AcDbLine
 10
25.00000000000032
 20
9.999999999999335
 30
0.0
 11
25.00000000000032
 21
4.999999999999337
 31
0.0
  0
LINE
  5
4076
330
4045
100
AcDbEntity
  8
FORMAT
 62
     7
370
    18
100
AcDbLine
 10
410.0000000000001
 20
10.0
 30
0.0
 11
410.0000000000001
 21
5.0
 31
0.0
  0
LINE
  5
4077
330
4045
100
AcDbEntity
  8
FORMAT
 62
     7
370
    18
100
AcDbLine
 10
410.0000000000001
 20
10.0
 30
0.0
 11
415.0000000000002
 21
10.0
 31
0.0
  0
LINE
  5
4078
330
4045
100
AcDbEntity
  8
FORMAT
 62
     7
370
    18
100
AcDbLine
 10
409.9999999999998
 20
287.0
 30
0.0
 11
414.9999999999998
 21
287.0
 31
0.0
  0
LINE
  5
4079
330
4045
100
AcDbEntity
  8
FORMAT
 62
     7
370
    18
100
AcDbLine
 10
409.9999999999998
 20
287.0
 30
0.0
 11
409.9999999999998
 21
292.0
 31
0.0
  0
LINE
  5
407A
330
4045
100
AcDbEntity
  8
FORMAT
 62
     7
370
    18
100
AcDbLine
 10
25.00000000000022
 20
287.0000000000004
 30
0.0
 11
25.00000000000022
 21
292.0000000000005
 31
0.0
  0
LINE
  5
407B
330
4045
100
AcDbEntity
  8
FORMAT
 62
     7
370
    18
100
AcDbLine
 10
25.00000000000022
 20
287.0000000000004
 30
0.0
 11
20.00000000000022
 21
287.0000000000004
 31
0.0
  0
LINE
  5
407C
330
4045
100
AcDbEntity
  8
FORMAT
 62
     7
370
    18
100
AcDbLine
 10
25.00000000000031
 20
49.5
 30
0.0
 11
20.00000000000031
 21
49.5
 31
0.0
  0
LINE
  5
407D
330
4045
100
AcDbEntity
  8
FORMAT
 62
     7
370
    18
100
AcDbLine
 10
25.00000000000031
 20
99.0
 30
0.0
 11
20.00000000000031
 21
99.0
 31
0.0
  0
LINE
  5
407E
330
4045
100
AcDbEntity
  8
FORMAT
 62
     7
370
    18
100
AcDbLine
 10
30.00000000000028
 20
148.4999999999998
 30
0.0
 11
20.00000000000028
 21
148.4999999999998
 31
0.0
  0
LINE
  5
407F
330
4045
100
AcDbEntity
  8
FORMAT
 62
     7
370
    18
100
AcDbLine
 10
25.00000000000027
 20
197.9999999999998
 30
0.0
 11
20.00000000000027
 21
197.9999999999998
 31
0.0
  0
LINE
  5
4080
330
4045
100
AcDbEntity
  8
FORMAT
 62
     7
370
    18
100
AcDbLine
 10
25.00000000000027
 20
247.4999999999998
 30
0.0
 11
20.00000000000027
 21
247.4999999999998
 31
0.0
  0
TEXT
  5
4081
330
4045
100
AcDbEntity
  8
FORMAT
 62
     7
370
    18
100
AcDbText
 10
20.66666666666689
 20
270.3833333333334
 30
0.0
 40
4.0
  1
A
  7
ULVAC
 72
     4
 11
22.00000000000023
 21
272.2500000000001
 31
0.0
100
AcDbText
  0
TEXT
  5
4082
330
4045
100
AcDbEntity
  8
FORMAT
 62
     7
370
    18
100
AcDbText
 10
20.66666666666689
 20
220.8833333333333
 30
0.0
 40
4.0
  1
B
  7
ULVAC
 72
     4
 11
22.00000000000023
 21
222.75
 31
0.0
100
AcDbText
  0
TEXT
  5
4083
330
4045
100
AcDbEntity
  8
FORMAT
 62
     7
370
    18
100
AcDbText
 10
20.66666666666689
 20
171.3833333333333
 30
0.0
 40
4.0
  1
C
  7
ULVAC
 72
     4
 11
22.00000000000023
 21
173.25
 31
0.0
100
AcDbText
  0
TEXT
  5
4084
330
4045
100
AcDbEntity
  8
FORMAT
 62
     7
370
    18
100
AcDbText
 10
20.66666666666689
 20
121.8833333333333
 30
0.0
 40
4.0
  1
D
  7
ULVAC
 72
     4
 11
22.00000000000023
 21
123.75
 31
0.0
100
AcDbText
  0
TEXT
  5
4085
330
4045
100
AcDbEntity
  8
FORMAT
 62
     7
370
    18
100
AcDbText
 10
20.66666666666689
 20
72.38333333333341
 30
0.0
 40
4.0
  1
E
  7
ULVAC
 72
     4
 11
22.00000000000023
 21
74.25000000000007
 31
0.0
100
AcDbText
  0
TEXT
  5
4086
330
4045
100
AcDbEntity
  8
FORMAT
 62
     7
370
    18
100
AcDbText
 10
20.66666666666689
 20
22.88333333333339
 30
0.0
 40
4.0
  1
F
  7
ULVAC
 72
     4
 11
22.00000000000023
 21
24.75000000000006
 31
0.0
100
AcDbText
  0
LINE
  5
4087
330
4045
100
AcDbEntity
  8
FORMAT
 62
     7
370
    18
100
AcDbLine
 10
409.9999999999996
 20
49.49999999999986
 30
0.0
 11
414.9999999999995
 21
49.49999999999986
 31
0.0
  0
LINE
  5
4088
330
4045
100
AcDbEntity
  8
FORMAT
 62
     7
370
    18
100
AcDbLine
 10
409.9999999999996
 20
98.99999999999987
 30
0.0
 11
414.9999999999995
 21
98.99999999999987
 31
0.0
  0
LINE
  5
4089
330
4045
100
AcDbEntity
  8
FORMAT
 62
     7
370
    18
100
AcDbLine
 10
404.9999999999998
 20
148.4999999999997
 30
0.0
 11
414.9999999999996
 21
148.4999999999996
 31
0.0
  0
LINE
  5
408A
330
4045
100
AcDbEntity
  8
FORMAT
 62
     7
370
    18
100
AcDbLine
 10
409.9999999999996
 20
197.9999999999997
 30
0.0
 11
414.9999999999996
 21
197.9999999999995
 31
0.0
  0
LINE
  5
408B
330
4045
100
AcDbEntity
  8
FORMAT
 62
     7
370
    18
100
AcDbLine
 10
409.9999999999998
 20
247.4999999999997
 30
0.0
 11
414.9999999999998
 21
247.4999999999996
 31
0.0
  0
TEXT
  5
408C
330
4045
100
AcDbEntity
  8
FORMAT
 62
     7
370
    18
100
AcDbText
 10
411.6666666666665
 20
270.3833333333333
 30
0.0
 40
4.0
  1
A
  7
ULVAC
 72
     4
 11
412.9999999999998
 21
272.25
 31
0.0
100
AcDbText
  0
TEXT
  5
408D
330
4045
100
AcDbEntity
  8
FORMAT
 62
     7
370
    18
100
AcDbText
 10
411.6666666666665
 20
220.8833333333332
 30
0.0
 40
4.0
  1
B
  7
ULVAC
 72
     4
 11
412.9999999999998
 21
222.7499999999999
 31
0.0
100
AcDbText
  0
TEXT
  5
408E
330
4045
100
AcDbEntity
  8
FORMAT
 62
     7
370
    18
100
AcDbText
 10
411.6666666666665
 20
171.3833333333332
 30
0.0
 40
4.0
  1
C
  7
ULVAC
 72
     4
 11
412.9999999999998
 21
173.2499999999999
 31
0.0
100
AcDbText
  0
TEXT
  5
408F
330
4045
100
AcDbEntity
  8
FORMAT
 62
     7
370
    18
100
AcDbText
 10
411.6666666666665
 20
121.8833333333332
 30
0.0
 40
4.0
  1
D
  7
ULVAC
 72
     4
 11
412.9999999999998
 21
123.7499999999999
 31
0.0
100
AcDbText
  0
TEXT
  5
4090
330
4045
100
AcDbEntity
  8
FORMAT
 62
     7
370
    18
100
AcDbText
 10
411.6666666666665
 20
72.38333333333327
 30
0.0
 40
4.0
  1
E
  7
ULVAC
 72
     4
 11
412.9999999999998
 21
74.24999999999993
 31
0.0
100
AcDbText
  0
TEXT
  5
4091
330
4045
100
AcDbEntity
  8
FORMAT
 62
     7
370
    18
100
AcDbText
 10
411.6666666666664
 20
22.88333333333326
 30
0.0
 40
4.0
  1
F
  7
ULVAC
 72
     4
 11
412.9999999999997
 21
24.74999999999993
 31
0.0
100
AcDbText
  0
TEXT
  5
4092
330
4045
100
AcDbEntity
  8
FORMAT
 62
     7
370
    18
100
AcDbText
 10
403.3333333333334
 20
120.7500000000001
 30
0.0
 40
2.5
  1
30
  7
ULVAC
 72
     2
 11
407.0000000000002
 21
122.0000000000001
 31
0.0
100
AcDbText
 73
     2
  0
TEXT
  5
4093
330
4045
100
AcDbEntity
  8
FORMAT
 62
     7
370
    18
100
AcDbText
 10
405.3333333333334
 20
90.75000000000013
 30
0.0
 40
2.5
  1
0
  7
ULVAC
 72
     2
 11
407.0000000000002
 21
92.00000000000013
 31
0.0
100
AcDbText
 73
     2
  0
LINE
  5
4094
330
4045
100
AcDbEntity
  8
NONPLOT
 62
     7
370
     0
100
AcDbLine
 10
0.0
 20
0.0
 30
0.0
 11
420.0
 21
0.0
 31
0.0
  0
LINE
  5
4095
330
4045
100
AcDbEntity
  8
NONPLOT
 62
     7
370
     0
100
AcDbLine
 10
420.0
 20
0.0
 30
0.0
 11
420.0
 21
297.0
 31
0.0
  0
ENDBLK
  5
4099
330
4045
100
AcDbEntity
  8
0
 48
0.5
100
AcDbBlockEnd
  0
BLOCK
  5
41A4
330
40A1
100
AcDbEntity
  8
0
 48
0.5
100
AcDbBlockBegin
  2
ULVAC_TITLE_05
 70
     2
 10
0.0
 20
0.0
 30
0.0
  3
ULVAC_TITLE_05
  1

  0
LINE
  5
40A2
330
40A1
100
AcDbEntity
  8
FORMAT
 62
     7
370
    18
100
AcDbLine
 10
-175.0
 20
55.0
 30
0.0
 11
-74.0
 21
55.0
 31
0.0
  0
LINE
  5
40A3
330
40A1
100
AcDbEntity
  8
FORMAT
 62
     7
370
    18
100
AcDbLine
 10
-105.0
 20
46.0
 30
0.0
 11
-105.0
 21
36.0
 31
0.0
  0
LINE
  5
40A4
330
40A1
100
AcDbEntity
  8
FORMAT
 62
     7
370
    18
100
AcDbLine
 10
-175.0
 20
11.0
 30
0.0
 11
0.0
 21
11.0
 31
0.0
  0
LINE
  5
40A5
330
40A1
100
AcDbEntity
  8
FORMAT
 62
     7
370
    18
100
AcDbLine
 10
-175.065292
 20
36.0
 30
0.0
 11
0.0
 21
36.0
 31
0.0
  0
LINE
  5
40A6
330
40A1
100
AcDbEntity
  8
FORMAT
 62
     7
370
    18
100
AcDbLine
 10
-175.0
 20
27.0
 30
0.0
 11
-111.0
 21
27.0
 31
0.0
  0
LINE
  5
40A7
330
40A1
100
AcDbEntity
  8
FORMAT
 62
     7
370
    18
100
AcDbLine
 10
-11.0
 20
0.0
 30
0.0
 11
-11.0
 21
11.0
 31
0.0
  0
LINE
  5
40A8
330
40A1
100
AcDbEntity
  8
FORMAT
 62
     7
370
    18
100
AcDbLine
 10
-175.0
 20
46.0
 30
0.0
 11
0.0
 21
46.0
 31
0.0
  0
LINE
  5
40A9
330
40A1
100
AcDbEntity
  8
FORMAT
 62
     7
370
    18
100
AcDbLine
 10
-74.0
 20
41.0
 30
0.0
 11
0.0
 21
41.0
 31
0.0
  0
LINE
  5
40AA
330
40A1
100
AcDbEntity
  8
FORMAT
 62
     7
370
    18
100
AcDbLine
 10
-8.250007999999978
 20
2.750022999999998
 30
0.0
 11
-2.750001999999994
 21
8.250028999999981
 31
0.0
  0
LINE
  5
40AB
330
40A1
100
AcDbEntity
  8
FORMAT
 62
     7
370
    18
100
AcDbLine
 10
-74.0
 20
58.0
 30
0.0
 11
0.0
 21
58.0
 31
0.0
  0
LINE
  5
40AC
330
40A1
100
AcDbEntity
  8
FORMAT
 62
     7
370
    18
100
AcDbLine
 10
-74.0
 20
52.0
 30
0.0
 11
0.0
 21
52.0
 31
0.0
  0
LINE
  5
40AD
330
40A1
100
AcDbEntity
  8
FORMAT
 62
     7
370
    18
100
AcDbLine
 10
-98.0
 20
25.0
 30
0.0
 11
-98.0
 21
0.0
 31
0.0
  0
MTEXT
  5
40AE
330
40A1
100
AcDbEntity
  8
TEXT
 62
     7
 48
0.5
370
    18
100
AcDbMText
 10
-173.235404
 20
5.80145299999998
 30
0.0
 40
2.5
 41
0.0
 71
     4
 72
     1
  1
\W0.853;\A1;MFG\PNo.
  7
ULVAC
 73
     1
 44
0.935885
1001
ACAD
1000
MTEXTBEGIN
1070
    73
1070
     1
1070
    44
1040
0.935885
1070
    74
1070
     0
1000
MTEXTEND
  0
MTEXT
  5
40AF
330
40A1
100
AcDbEntity
  8
TEXT
 62
     7
 48
0.5
370
    18
100
AcDbMText
 10
-96.27096000000001
 20
5.80145299999998
 30
0.0
 40
2.5
 41
0.0
 71
     4
 72
     1
  1
\W0.768;\A1;DWG\PNo.
  7
ULVAC
 73
     1
 44
0.935885
1001
ACAD
1000
MTEXTBEGIN
1070
    73
1070
     1
1070
    44
1040
0.935885
1070
    74
1070
     0
1000
MTEXTEND
  0
LINE
  5
40B0
330
40A1
100
AcDbEntity
  8
FORMAT
 62
     7
370
    18
100
AcDbLine
 10
-175.0
 20
63.99999999999999
 30
0.0
 11
0.0
 21
64.0
 31
0.0
  0
MTEXT
  5
40B1
330
40A1
100
AcDbEntity
  8
TEXT
 62
     7
 48
0.5
370
    18
100
AcDbMText
 10
-173.9600997251988
 20
49.87355099999996
 30
0.0
 40
3.0
 41
0.0
 71
     4
 72
     1
  1
\W0.8;流用元図番
  7
ULVAC
 73
     1
 44
0.935885
1001
ACAD
1000
MTEXTBEGIN
1070
    73
1070
     1
1070
    44
1040
0.935885
1070
    74
1070
     0
1000
MTEXTEND
  0
LINE
  5
40B2
330
40A1
100
AcDbEntity
  8
FORMAT
 62
     7
370
    18
100
AcDbLine
 10
-143.0
 20
46.0
 30
0.0
 11
-143.0
 21
11.0
 31
0.0
  0
LINE
  5
40B3
330
40A1
100
AcDbEntity
  8
FORMAT
 62
     7
370
    18
100
AcDbLine
 10
-159.0
 20
36.0
 30
0.0
 11
-159.0
 21
11.0
 31
0.0
  0
MTEXT
  5
40B4
330
40A1
100
AcDbEntity
  8
TEXT
 62
     7
 48
0.5
370
    18
100
AcDbMText
 10
-104.5
 20
21.5
 30
0.0
 40
2.5
 41
0.0
 71
     5
 72
     1
  1
\W0.833;\A1;SCALE
  7
ULVAC
 73
     1
 44
0.9000719999999999
1001
ACAD
1000
MTEXTBEGIN
1070
    73
1070
     1
1070
    44
1040
0.9000719999999999
1070
    74
1070
     0
1000
MTEXTEND
  0
MTEXT
  5
40B5
330
40A1
100
AcDbEntity
  8
TEXT
 62
     7
 48
0.5
370
    18
100
AcDbMText
 10
-104.5
 20
14.5
 30
0.0
 40
2.5
 41
0.0
 71
     5
 72
     1
  1
\W0.833;DATE
  7
ULVAC
 73
     1
 44
0.9000719999999999
1001
ACAD
1000
MTEXTBEGIN
1070
    73
1070
     1
1070
    44
1040
0.9000719999999999
1070
    74
1070
     0
1000
MTEXTEND
  0
MTEXT
  5
40B6
330
40A1
100
AcDbEntity
  8
TEXT
 62
     7
 48
0.5
370
    18
100
AcDbMText
 10
-37.0
 20
38.5
 30
0.0
 40
3.0
 41
0.0
 71
     5
 72
     1
  1
\W0.890;\A1;REVISION
  7
ULVAC
 73
     1
 44
0.9
1001
ACAD
1000
MTEXTBEGIN
1070
    73
1070
     1
1070
    44
1040
0.9
1070
    74
1070
     0
1000
MTEXTEND
  0
MTEXT
  5
40B7
330
40A1
100
AcDbEntity
  8
TEXT
 62
     7
 48
0.5
370
    18
100
AcDbMText
 10
-18.5
 20
43.5
 30
0.0
 40
3.0
 41
0.0
 71
     5
 72
     1
  1
\W0.853;\A1;REMARKS
  7
ULVAC
 73
     1
 44
0.935885
1001
ACAD
1000
MTEXTBEGIN
1070
    73
1070
     1
1070
    44
1040
0.935885
1070
    74
1070
     0
1000
MTEXTEND
  0
MTEXT
  5
40B8
330
40A1
100
AcDbEntity
  8
TEXT
 62
     7
 48
0.5
370
    18
100
AcDbMText
 10
-48.0
 20
43.5
 30
0.0
 40
3.0
 41
0.0
 71
     5
 72
     1
  1
\W0.853;\A1;DATE
  7
ULVAC
 73
     1
 44
0.935885
1001
ACAD
1000
MTEXTBEGIN
1070
    73
1070
     1
1070
    44
1040
0.935885
1070
    74
1070
     0
1000
MTEXTEND
  0
MTEXT
  5
40B9
330
40A1
100
AcDbEntity
  8
TEXT
 62
     7
 48
0.5
370
    18
100
AcDbMText
 10
-66.5
 20
43.5
 30
0.0
 40
3.0
 41
0.0
 71
     5
 72
     1
  1
\W0.853;\A1;MARK
  7
ULVAC
 73
     1
 44
0.935885
1001
ACAD
1000
MTEXTBEGIN
1070
    73
1070
     1
1070
    44
1040
0.935885
1070
    74
1070
     0
1000
MTEXTEND
  0
MTEXT
  5
40BA
330
40A1
100
AcDbEntity
  8
TEXT
 62
     7
 48
0.5
370
    18
100
AcDbMText
 10
-66.5
 20
55.0
 30
0.0
 40
3.0
 41
0.0
 71
     5
 72
     1
  1
\W0.853;\A1;-
  7
ULVAC
 73
     1
 44
0.935885
1001
ACAD
1000
MTEXTBEGIN
1070
    73
1070
     1
1070
    44
1040
0.935885
1070
    74
1070
     0
1000
MTEXTEND
  0
MTEXT
  5
40BB
330
40A1
100
AcDbEntity
  8
TEXT
 62
     7
 48
0.5
370
    18
100
AcDbMText
 10
-66.5
 20
49.0
 30
0.0
 40
3.0
 41
0.0
 71
     5
 72
     1
  1
\W0.853;\A1;-
  7
ULVAC
 73
     1
 44
0.935885
1001
ACAD
1000
MTEXTBEGIN
1070
    73
1070
     1
1070
    44
1040
0.935885
1070
    74
1070
     0
1000
MTEXTEND
  0
MTEXT
  5
40BC
330
40A1
100
AcDbEntity
  8
TEXT
 62
     7
 48
0.5
370
    18
100
AcDbMText
 10
-66.5
 20
61.0
 30
0.0
 40
3.0
 41
0.0
 71
     5
 72
     1
  1
\W0.853;\A1;-
  7
ULVAC
 73
     1
 44
0.935885
1001
ACAD
1000
MTEXTBEGIN
1070
    73
1070
     1
1070
    44
1040
0.935885
1070
    74
1070
     0
1000
MTEXTEND
  0
MTEXT
  5
40BD
330
40A1
100
AcDbEntity
  8
TEXT
 62
     7
 48
0.5
370
    18
100
AcDbMText
 10
-142.337322
 20
41.0
 30
0.0
 40
3.0
 41
0.0
 71
     4
 72
     1
  1
\W0.92;JIS B 0419-mH級\PJIS B 0408-B 級
  7
ULVAC
 73
     1
 44
0.9
1001
ACAD
1000
MTEXTBEGIN
1070
    73
1070
     1
1070
    44
1040
0.9
1070
    74
1070
     0
1000
MTEXTEND
  0
MTEXT
  5
40BE
330
40A1
100
AcDbEntity
  8
TEXT
 62
     7
 48
0.5
370
    18
100
AcDbMText
 10
-122.48445
 20
30.75
 30
0.0
 40
3.0
 41
0.0
 71
     1
 72
     1
  1
\W0.711;\A1;製　図
  7
ULVAC
 73
     1
 44
0.935885
1001
ACAD
1000
MTEXTBEGIN
1070
    73
1070
     1
1070
    44
1040
0.935885
1070
    74
1070
     0
1000
MTEXTEND
  0
MTEXT
  5
40BF
330
40A1
100
AcDbEntity
  8
TEXT
 62
     7
 48
0.5
370
    18
100
AcDbMText
 10
-138.48445
 20
30.75
 30
0.0
 40
3.0
 41
0.0
 71
     1
 72
     1
  1
\W0.711;\A1;設　計
  7
ULVAC
 73
     1
 44
0.935885
1001
ACAD
1000
MTEXTBEGIN
1070
    73
1070
     1
1070
    44
1040
0.935885
1070
    74
1070
     0
1000
MTEXTEND
  0
MTEXT
  5
40C0
330
40A1
100
AcDbEntity
  8
TEXT
 62
     7
 48
0.5
370
    18
100
AcDbMText
 10
-154.48445
 20
30.75
 30
0.0
 40
3.0
 41
0.0
 71
     1
 72
     1
  1
\W0.711;\A1;検　図
  7
ULVAC
 73
     1
 44
0.935885
1001
ACAD
1000
MTEXTBEGIN
1070
    73
1070
     1
1070
    44
1040
0.935885
1070
    74
1070
     0
1000
MTEXTEND
  0
MTEXT
  5
40C1
330
40A1
100
AcDbEntity
  8
TEXT
 62
     7
 48
0.5
370
    18
100
AcDbMText
 10
-170.48445
 20
30.75
 30
0.0
 40
3.0
 41
0.0
 71
     1
 72
     1
  1
\W0.711;\A1;承　認
  7
ULVAC
 73
     1
 44
0.935885
1001
ACAD
1000
MTEXTBEGIN
1070
    73
1070
     1
1070
    44
1040
0.935885
1070
    74
1070
     0
1000
MTEXTEND
  0
MTEXT
  5
40C2
330
40A1
100
AcDbEntity
  8
TEXT
 62
     7
 48
0.5
370
    18
100
AcDbMText
 10
-71.173158
 20
33.87284900000003
 30
0.0
 40
2.5
 41
0.0
 71
     1
 72
     1
  1
\W0.776;\A1;TITLE
  7
ULVAC
 73
     1
 44
0.9
1001
ACAD
1000
MTEXTBEGIN
1070
    73
1070
     1
1070
    44
1040
0.9
1070
    74
1070
     0
1000
MTEXTEND
  0
MTEXT
  5
40C3
330
40A1
100
AcDbEntity
  8
TEXT
 62
     7
 48
0.5
370
    18
100
AcDbMText
 10
-123.368363
 20
35.0
 30
0.0
 40
2.5
 41
0.0
 71
     1
 72
     1
  1
\W0.874;\A1;DRAW
  7
ULVAC
 73
     1
 44
0.9
1001
ACAD
1000
MTEXTBEGIN
1070
    73
1070
     1
1070
    44
1040
0.9
1070
    74
1070
     0
1000
MTEXTEND
  0
MTEXT
  5
40C4
330
40A1
100
AcDbEntity
  8
TEXT
 62
     7
 48
0.5
370
    18
100
AcDbMText
 10
-139.588229
 20
35.0
 30
0.0
 40
2.5
 41
0.0
 71
     1
 72
     1
  1
\W0.847;\A1;DESIG
  7
ULVAC
 73
     1
 44
0.9
1001
ACAD
1000
MTEXTBEGIN
1070
    73
1070
     1
1070
    44
1040
0.9
1070
    74
1070
     0
1000
MTEXTEND
  0
MTEXT
  5
40C5
330
40A1
100
AcDbEntity
  8
TEXT
 62
     7
 48
0.5
370
    18
100
AcDbMText
 10
-155.6117589999999
 20
35.0
 30
0.0
 40
2.5
 41
0.0
 71
     1
 72
     1
  1
\W0.791;\A1;CHECK
  7
ULVAC
 73
     1
 44
0.9
1001
ACAD
1000
MTEXTBEGIN
1070
    73
1070
     1
1070
    44
1040
0.9
1070
    74
1070
     0
1000
MTEXTEND
  0
MTEXT
  5
40C6
330
40A1
100
AcDbEntity
  8
TEXT
 62
     7
 48
0.5
370
    18
100
AcDbMText
 10
-171.632347
 20
35.0
 30
0.0
 40
2.5
 41
0.0
 71
     1
 72
     1
  1
\W0.741;\A1;APPRV
  7
ULVAC
 73
     1
 44
0.9
1001
ACAD
1000
MTEXTBEGIN
1070
    73
1070
     1
1070
    44
1040
0.9
1070
    74
1070
     0
1000
MTEXTEND
  0
CIRCLE
  5
40C7
330
40A1
100
AcDbEntity
  8
FORMAT
 62
     7
370
    35
100
AcDbCircle
 10
-89.65228999999999
 20
41.0
 30
0.0
 40
3.2
  0
CIRCLE
  5
40C8
330
40A1
100
AcDbEntity
  8
FORMAT
 62
     7
370
    35
100
AcDbCircle
 10
-89.65228999999999
 20
41.0
 30
0.0
 40
1.599998999999999
  0
LINE
  5
40C9
330
40A1
100
AcDbEntity
  8
FORMAT
 62
     7
370
    18
100
AcDbLine
 10
-159.0
 20
63.99999999999999
 30
0.0
 11
-159.0
 21
46.0
 31
0.0
  0
LINE
  5
40CA
330
40A1
100
AcDbEntity
  8
FORMAT
 62
     7
370
    18
100
AcDbLine
 10
-127.0
 20
36.0
 30
0.0
 11
-127.0
 21
11.0
 31
0.0
  0
LINE
  5
40CB
330
40A1
100
AcDbEntity
  8
FORMAT
 62
     7
370
    18
100
AcDbLine
 10
-37.0
 20
64.0
 30
0.0
 11
-37.0
 21
41.0
 31
0.0
  0
LINE
  5
40CC
330
40A1
100
AcDbEntity
  8
FORMAT
 62
     7
370
    18
100
AcDbLine
 10
-68.49992599999996
 20
53.10106000000001
 30
0.0
 11
-70.74992599999994
 21
56.998175
 31
0.0
  0
LINE
  5
40CD
330
40A1
100
AcDbEntity
  8
FORMAT
 62
     7
370
    18
100
AcDbLine
 10
-73.00003099999996
 20
53.100983
 30
0.0
 11
-68.50003099999998
 21
53.100983
 31
0.0
  0
LINE
  5
40CE
330
40A1
100
AcDbEntity
  8
FORMAT
 62
     7
370
    18
100
AcDbLine
 10
-68.49989900000003
 20
47.10104199999999
 30
0.0
 11
-70.74989799999997
 21
50.99815599999999
 31
0.0
  0
LINE
  5
40CF
330
40A1
100
AcDbEntity
  8
FORMAT
 62
     7
370
    18
100
AcDbLine
 10
-73.00003099999996
 20
47.10098300000001
 30
0.0
 11
-68.50003099999998
 21
47.10098300000001
 31
0.0
  0
LINE
  5
40D0
330
40A1
100
AcDbEntity
  8
FORMAT
 62
     7
370
    18
100
AcDbLine
 10
-68.49994100000003
 20
59.10108599999998
 30
0.0
 11
-70.74994100000004
 21
62.99820099999998
 31
0.0
  0
LINE
  5
40D1
330
40A1
100
AcDbEntity
  8
FORMAT
 62
     7
370
    18
100
AcDbLine
 10
-73.00003099999996
 20
59.10098300000001
 30
0.0
 11
-68.50003099999998
 21
59.10098300000001
 31
0.0
  0
LINE
  5
40D2
330
40A1
100
AcDbEntity
  8
FORMAT
 62
     7
370
    18
100
AcDbLine
 10
-111.0
 20
18.0
 30
0.0
 11
-74.0
 21
18.0
 31
0.0
  0
LINE
  5
40D3
330
40A1
100
AcDbEntity
  8
FORMAT
 62
     7
370
    18
100
AcDbLine
 10
-59.0
 20
64.0
 30
0.0
 11
-59.0
 21
41.0
 31
0.0
  0
LINE
  5
40D4
330
40A1
100
AcDbEntity
  8
FORMAT
 62
     7
370
    18
100
AcDbLine
 10
-111.0
 20
25.0
 30
0.0
 11
-74.0
 21
25.0
 31
0.0
  0
LINE
  5
40D5
330
40A1
100
AcDbEntity
  8
FORMAT
 62
     7
370
    18
100
AcDbLine
 10
-111.0
 20
36.0
 30
0.0
 11
-111.0
 21
11.0
 31
0.0
  0
LINE
  5
40D6
330
40A1
100
AcDbEntity
  8
FORMAT
  6
AM_ISO08W050x2
 62
     7
370
    18
100
AcDbLine
 10
-89.65228999999999
 20
45.0
 30
0.0
 11
-89.65228999999999
 21
37.0
 31
0.0
  0
LINE
  5
40D7
330
40A1
100
AcDbEntity
  8
FORMAT
 62
     7
370
    35
100
AcDbLine
 10
-83.25237200000001
 20
42.60043900000002
 30
0.0
 11
-75.25241699999998
 21
44.20042900000001
 31
0.0
  0
LINE
  5
40D8
330
40A1
100
AcDbEntity
  8
FORMAT
 62
     7
370
    35
100
AcDbLine
 10
-83.25223700000005
 20
39.40042700000001
 30
0.0
 11
-75.25223599999998
 21
37.80042700000001
 31
0.0
  0
LINE
  5
40D9
330
40A1
100
AcDbEntity
  8
FORMAT
 62
     7
370
    35
100
AcDbLine
 10
-83.25230399999998
 20
42.599991
 30
0.0
 11
-83.25230399999998
 21
39.39999399999999
 31
0.0
  0
LINE
  5
40DA
330
40A1
100
AcDbEntity
  8
FORMAT
 62
     7
370
    35
100
AcDbLine
 10
-75.252296
 20
44.19999700000001
 30
0.0
 11
-75.252296
 21
37.79998799999999
 31
0.0
  0
LINE
  5
40DB
330
40A1
100
AcDbEntity
  8
FORMAT
  6
AM_ISO08W050x2
 62
     7
370
    18
100
AcDbLine
 10
-94.0
 20
41.0
 30
0.0
 11
-74.5
 21
41.0
 31
0.0
  0
LINE
  5
40DC
330
40A1
100
AcDbEntity
  8
FORMAT
 62
     7
370
    18
100
AcDbLine
 10
-175.0
 20
0.0
 30
0.0
 11
-175.0
 21
64.0
 31
0.0
  0
LINE
  5
40DD
330
40A1
100
AcDbEntity
  8
FORMAT
 62
     7
370
    18
100
AcDbLine
 10
-175.0
 20
0.0
 30
0.0
 11
0.0
 21
0.0
 31
0.0
  0
LINE
  5
40DE
330
40A1
100
AcDbEntity
  8
FORMAT
 62
     7
370
    18
100
AcDbLine
 10
0.0
 20
0.0
 30
0.0
 11
-0.0000000000000568
 21
64.00000000000003
 31
0.0
  0
LINE
  5
40DF
330
40A1
100
AcDbEntity
  8
FORMAT
 62
     7
370
    18
100
AcDbLine
 10
-72.99997000000002
 20
53.10109
 30
0.0
 11
-70.749977
 21
56.99819100000002
 31
0.0
  0
LINE
  5
40E0
330
40A1
100
AcDbEntity
  8
FORMAT
 62
     7
370
    18
100
AcDbLine
 10
-72.999977
 20
47.101077
 30
0.0
 11
-70.74998399999998
 21
50.99817799999996
 31
0.0
  0
LINE
  5
40E1
330
40A1
100
AcDbEntity
  8
FORMAT
 62
     7
370
    18
100
AcDbLine
 10
-72.99996200000006
 20
59.101102
 30
0.0
 11
-70.74997000000002
 21
62.99820299999999
 31
0.0
  0
LINE
  5
40E2
330
40A1
100
AcDbEntity
  8
FORMAT
 62
     7
370
    18
100
AcDbLine
 10
-74.0
 20
64.0
 30
0.0
 11
-74.0
 21
11.0
 31
0.0
  0
LINE
  5
40E3
330
40A1
100
AcDbEntity
  8
FORMAT
 62
     7
370
    18
100
AcDbLine
 10
-95.0
 20
55.0
 30
0.0
 11
-95.0
 21
46.0
 31
0.0
  0
LINE
  5
40E4
330
40A1
100
AcDbEntity
  8
FORMAT
 62
     7
370
    18
100
AcDbLine
 10
-105.0
 20
55.0
 30
0.0
 11
-105.0
 21
46.0
 31
0.0
  0
MTEXT
  5
40E5
330
40A1
100
AcDbEntity
  8
TEXT
 62
     7
 48
0.5
370
    18
100
AcDbMText
 10
-172.773918
 20
41.0
 30
0.0
 40
3.0
 41
0.0
 71
     4
 72
     1
  1
\W0.815;TOLERANCES\PUNLESS NOTED
  7
ULVAC
 73
     1
 44
0.9
1001
ACAD
1000
MTEXTBEGIN
1070
    73
1070
     1
1070
    44
1040
0.9
1070
    74
1070
     0
1000
MTEXTEND
  0
LWPOLYLINE
  5
40E6
330
40A1
100
AcDbEntity
  8
FORMAT
 62
     7
370
    18
100
AcDbPolyline
 90
        4
 70
     0
 43
0.0
 10
-95.0
 20
36.0
 10
-105.0
 20
36.0
 10
-105.0
 20
46.0
 10
-95.0
 20
46.0
1001
GENIUS_GENREC_14
1002
{
1000
PYDIR
1011
-105.0
1021
36.0
1031
0.0
1002
}
1002
{
1000
PXDIR
1011
-95.0
1021
46.0
1031
0.0
1002
}
1002
{
1000
PORI
1011
-105.0
1021
46.0
1031
0.0
1002
}
1002
{
1000
PINS
1011
-105.0
1021
46.0
1031
0.0
1002
}
1002
{
1000
PINS2
1011
-95.0
1021
36.0
1031
0.0
1002
}
1002
{
1000
C
1070
     1
1002
}
1001
GENIUS_GENOBJ-N-REC_13
1002
{
1000
OWNER
1000
GEN
1002
}
1001
GENIUS_GENODEF_13
1002
{
1000
HIER
1070
     0
1002
}
1002
{
1000
MANEDIT
1070
     0
1002
}
1002
{
1000
NOSEL
1070
     0
1002
}
1002
{
1000
BEHIND
1070
     0
1002
}
1002
{
1000
OTHER
1070
     0
1002
}
1002
{
1000
REACTOR
1002
}
  0
LINE
  5
40E7
330
40A1
100
AcDbEntity
  8
FORMAT
 62
     7
370
    18
100
AcDbLine
 10
-175.0000001643418
 20
54.99999998761929
 30
0.0
 11
-74.00000016434177
 21
54.99999998761929
 31
0.0
  0
MTEXT
  5
40E8
330
40A1
100
AcDbEntity
  8
TEXT
 62
     7
 48
0.5
370
    18
100
AcDbMText
 10
-98.23072316434178
 20
62.00908998761925
 30
0.0
 40
2.5
 41
0.0
 71
     4
 72
     1
  1
\W0.694;\A1;NAME
  7
ULVAC
 73
     1
 44
0.9000719999999999
1001
ACAD
1000
MTEXTBEGIN
1070
    73
1070
     1
1070
    44
1040
0.9000719999999999
1070
    74
1070
     0
1000
MTEXTEND
  0
MTEXT
  5
40E9
330
40A1
100
AcDbEntity
  8
TEXT
 62
     7
 48
0.5
370
    18
100
AcDbMText
 10
-155.6186231643416
 20
63.16508998761928
 30
0.0
 40
2.5
 41
0.0
 71
     1
 72
     1
  1
\W1.002;DWG.No
  7
ULVAC
 73
     1
 44
0.9
1001
ACAD
1000
MTEXTBEGIN
1070
    73
1070
     1
1070
    44
1040
0.9
1070
    74
1070
     0
1000
MTEXTEND
  0
MTEXT
  5
40EA
330
40A1
100
AcDbEntity
  8
TEXT
 62
     7
 48
0.5
370
    18
100
AcDbMText
 10
-168.3924651643416
 20
59.11592598761925
 30
0.0
 40
5.0
 41
0.0
 71
     4
 72
     1
  1
\W0.711;貼
  7
ULVAC
 73
     1
 44
0.935885
1001
ACAD
1000
MTEXTBEGIN
1070
    73
1070
     1
1070
    44
1040
0.935885
1070
    74
1070
     0
1000
MTEXTEND
  0
LINE
  5
40EB
330
40A1
100
AcDbEntity
  8
FORMAT
 62
     7
370
    18
100
AcDbLine
 10
-123.2500001643417
 20
63.99999998761927
 30
0.0
 11
-123.2500001643417
 21
54.99999998761929
 31
0.0
  0
MTEXT
  5
40EC
330
40A1
100
AcDbEntity
  8
TEXT
 62
     7
 48
0.5
370
    18
100
AcDbMText
 10
-118.4891931643417
 20
61.82796298761926
 30
0.0
 40
2.5
 41
0.0
 71
     5
 72
     1
  1
\W0.833;\A1;DATE
  7
ULVAC
 73
     1
 44
0.9000719999999999
1001
ACAD
1000
MTEXTBEGIN
1070
    73
1070
     1
1070
    44
1040
0.9000719999999999
1070
    74
1070
     0
1000
MTEXTEND
  0
LINE
  5
40ED
330
40A1
100
AcDbEntity
  8
FORMAT
 62
     7
370
    18
100
AcDbLine
 10
-99.25000016434177
 20
63.99999998761927
 30
0.0
 11
-99.25000016434177
 21
54.99999998761929
 31
0.0
  0
ARC
  5
40EE
330
40A1
100
AcDbEntity
  8
FORMAT
 62
     7
370
    35
100
AcDbCircle
 10
-90.72441226105116
 20
27.52474362454939
 30
0.0
 40
0.0183014339639688
100
AcDbArc
 50
180.0
 51
270.0
  0
LINE
  5
40EF
330
40A1
100
AcDbEntity
  8
FORMAT
 62
     7
370
    35
100
AcDbLine
 10
-77.15187624059741
 20
29.21627969267354
 30
0.0
 11
-76.55524851227983
 21
29.21627969267354
 31
0.0
  0
LINE
  5
40F0
330
40A1
100
AcDbEntity
  8
FORMAT
 62
     7
370
    35
100
AcDbLine
 10
-77.10204216406032
 20
30.7019819876092
 30
0.0
 11
-76.45094087273879
 21
30.7019819876092
 31
0.0
  0
ARC
  5
40F1
330
40A1
100
AcDbEntity
  8
FORMAT
 62
     7
370
    35
100
AcDbCircle
 10
-77.06557217077534
 20
32.04474871228081
 30
0.0
 40
0.3660286792793762
100
AcDbArc
 50
230.5099444785511
 51
341.6481534344291
  0
LINE
  5
40F2
330
40A1
100
AcDbEntity
  8
FORMAT
 62
     7
370
    35
100
AcDbLine
 10
-76.71815935898941
 20
31.92950404966223
 30
0.0
 11
-76.51811962299939
 21
32.53253733181282
 31
0.0
  0
ARC
  5
40F3
330
40A1
100
AcDbEntity
  8
FORMAT
 62
     7
370
    35
100
AcDbCircle
 10
-76.5053055868716
 20
32.51423589366345
 30
0.0
 40
0.0183014339639688
100
AcDbArc
 50
90.0
 51
150.0004403131209
  0
ARC
  5
40F4
330
40A1
100
AcDbEntity
  8
FORMAT
 62
     7
370
    35
100
AcDbCircle
 10
-76.46701034080251
 20
32.51423589366345
 30
0.0
 40
0.0183014339639688
100
AcDbArc
 50
0.0
 51
90.0
  0
LINE
  5
40F5
330
40A1
100
AcDbEntity
  8
FORMAT
 62
     7
370
    35
100
AcDbLine
 10
-76.5053055868716
 20
32.53253732762733
 30
0.0
 11
-76.46701034080251
 21
32.53253732762733
 31
0.0
  0
LINE
  5
40F6
330
40A1
100
AcDbEntity
  8
FORMAT
 62
     7
370
    35
100
AcDbLine
 10
-76.44870890683866
 20
32.51423589366345
 30
0.0
 11
-76.44870890683866
 21
30.70198198808362
 31
0.0
  0
ELLIPSE
  5
40F7
330
40A1
100
AcDbEntity
  8
FORMAT
 62
     7
370
    35
100
AcDbEllipse
 10
-79.16921145456297
 20
29.99480545972062
 30
0.0
 11
2.287679245496095
 21
-0.0000001615248652
 31
0.0
210
0.0
220
0.0
230
0.9999999999999998
 40
0.7216510581970219
 41
0.4426733724477117
 42
5.792109617456222
  0
ELLIPSE
  5
40F8
330
40A1
100
AcDbEntity
  8
FORMAT
 62
     7
370
    35
100
AcDbEllipse
 10
-79.575181802712
 20
29.99480552636465
 30
0.0
 11
3.172930735277038
 21
-0.0000001920919516
 31
0.0
210
0.0
220
0.0
230
1.0
 40
0.7998068702141572
 41
0.770473062673082
 42
5.97137714129547
  0
ARC
  5
40F9
330
40A1
100
AcDbEntity
  8
FORMAT
 62
     7
370
    35
100
AcDbCircle
 10
-95.37564757809022
 20
28.89252710812936
 30
0.0
 40
0.0091507169819844
100
AcDbArc
 50
350.2609202919654
 51
146.6766537949558
  0
ARC
  5
40FA
330
40A1
100
AcDbEntity
  8
FORMAT
 62
     7
370
    35
100
AcDbCircle
 10
-96.46242924072613
 20
28.92188017709043
 30
0.0
 40
0.9150716981984398
100
AcDbArc
 50
270.0
 51
326.6766537949558
  0
LINE
  5
40FB
330
40A1
100
AcDbEntity
  8
FORMAT
 62
     7
370
    35
100
AcDbLine
 10
-95.69781035273638
 20
28.41917333511094
 30
0.0
 11
-95.38329376697015
 21
28.89755417654919
 31
0.0
  0
ARC
  5
40FC
330
40A1
100
AcDbEntity
  8
FORMAT
 62
     7
370
    35
100
AcDbCircle
 10
-107.6060478770592
 20
28.51059288744523
 30
0.0
 40
0.45753584909922
100
AcDbArc
 50
202.6932775652467
 51
234.0160489480132
  0
ARC
  5
40FD
330
40A1
100
AcDbEntity
  8
FORMAT
 62
     7
370
    35
100
AcDbCircle
 10
-107.6491746415554
 20
28.61372472329686
 30
0.0
 40
0.45753584909922
100
AcDbArc
 50
180.0
 51
202.6932775652467
  0
ARC
  5
40FE
330
40A1
100
AcDbEntity
  8
FORMAT
 62
     7
370
    35
100
AcDbCircle
 10
-106.9631267510696
 20
28.04375843927438
 30
0.0
 40
0.45753584909922
100
AcDbArc
 50
234.0160489480132
 51
253.9178076732259
  0
ARC
  5
40FF
330
40A1
100
AcDbEntity
  8
FORMAT
 62
     7
370
    35
100
AcDbCircle
 10
-106.3430878387555
 20
27.86500214881539
 30
0.0
 40
0.45753584909922
100
AcDbArc
 50
253.9178076732259
 51
261.6064190568124
  0
LINE
  5
4100
330
40A1
100
AcDbEntity
  8
FORMAT
 62
     7
370
    35
100
AcDbLine
 10
-107.8748770082077
 20
28.14036329454791
 30
0.0
 11
-107.231955882218
 21
27.67352884637694
 31
0.0
  0
LINE
  5
4101
330
40A1
100
AcDbEntity
  8
FORMAT
 62
     7
370
    35
100
AcDbLine
 10
-107.0898715143441
 20
27.60412811935385
 30
0.0
 11
-106.46983260203
 21
27.42537182889487
 31
0.0
  0
LINE
  5
4102
330
40A1
100
AcDbEntity
  8
FORMAT
 62
     7
370
    35
100
AcDbLine
 10
-108.0281628384671
 20
28.33407656364875
 30
0.0
 11
-108.0712896029632
 21
28.43720839950038
 31
0.0
  0
ARC
  5
4103
330
40A1
100
AcDbEntity
  8
FORMAT
 62
     7
370
    35
100
AcDbCircle
 10
-102.8385047420954
 20
28.05097770043654
 30
0.0
 40
0.45753584909922
100
AcDbArc
 50
284.4688421409701
 51
305.1353088422763
  0
ARC
  5
4104
330
40A1
100
AcDbEntity
  8
FORMAT
 62
     7
370
    35
100
AcDbCircle
 10
-85.94230139455239
 20
28.11028785285532
 30
0.0
 40
0.45753584909922
100
AcDbArc
 50
310.2915552042177
 51
29.66165865504749
  0
ARC
  5
4105
330
40A1
100
AcDbEntity
  8
FORMAT
 62
     7
370
    35
100
AcDbCircle
 10
-83.15608463810225
 20
28.34850096935145
 30
0.0
 40
0.45753584909922
100
AcDbArc
 50
211.3286928667059
 51
241.0759065697406
  0
ARC
  5
4106
330
40A1
100
AcDbEntity
  8
FORMAT
 62
     7
370
    35
100
AcDbCircle
 10
-85.8213542035129
 20
27.57699790295101
 30
0.0
 40
0.0274521509459532
100
AcDbArc
 50
130.2915552042083
 51
180.0
  0
ARC
  5
4107
330
40A1
100
AcDbEntity
  8
FORMAT
 62
     7
370
    35
100
AcDbCircle
 10
-82.75636702427517
 20
27.57351905830342
 30
0.0
 40
0.0274521509459532
100
AcDbArc
 50
0.0
 51
61.07590656975474
  0
ARC
  5
4108
330
40A1
100
AcDbEntity
  8
FORMAT
 62
     7
370
    35
100
AcDbCircle
 10
-82.74721630729311
 20
27.52474362454939
 30
0.0
 40
0.0183014339639688
100
AcDbArc
 50
270.0
 51
0.0
  0
LINE
  5
4109
330
40A1
100
AcDbEntity
  8
FORMAT
 62
     7
370
    35
100
AcDbLine
 10
-82.72891487332913
 20
27.52474362454939
 30
0.0
 11
-82.72891487332913
 21
27.57351905830342
 31
0.0
  0
ARC
  5
410A
330
40A1
100
AcDbEntity
  8
FORMAT
 62
     7
370
    35
100
AcDbCircle
 10
-85.83050492049492
 20
27.52474362454939
 30
0.0
 40
0.0183014339639688
100
AcDbArc
 50
180.0
 51
270.0
  0
LINE
  5
410B
330
40A1
100
AcDbEntity
  8
FORMAT
 62
     7
370
    35
100
AcDbLine
 10
-85.83910688810055
 20
27.5979374058461
 30
0.0
 11
-85.64642331809261
 21
27.76129613793728
 31
0.0
  0
LINE
  5
410C
330
40A1
100
AcDbEntity
  8
FORMAT
 62
     7
370
    35
100
AcDbLine
 10
-83.37737207197291
 20
27.94803758173419
 30
0.0
 11
-82.74308977824285
 21
27.59754686156055
 31
0.0
  0
LINE
  5
410D
330
40A1
100
AcDbEntity
  8
FORMAT
 62
     7
370
    35
100
AcDbLine
 10
-85.84880635445893
 20
27.52474362454939
 30
0.0
 11
-85.84880635445893
 21
27.57699790295101
 31
0.0
  0
ARC
  5
410E
330
40A1
100
AcDbEntity
  8
FORMAT
 62
     7
370
    35
100
AcDbCircle
 10
-103.3572229583052
 20
28.65465006208194
 30
0.0
 40
0.45753584909922
100
AcDbArc
 50
322.314625233869
 51
0.0
  0
ARC
  5
410F
330
40A1
100
AcDbEntity
  8
FORMAT
 62
     7
370
    35
100
AcDbCircle
 10
-88.97166687047819
 20
27.52474362454939
 30
0.0
 40
0.0183014339639688
100
AcDbArc
 50
270.0
 51
0.0
  0
ARC
  5
4110
330
40A1
100
AcDbEntity
  8
FORMAT
 62
     7
370
    35
100
AcDbCircle
 10
-90.71526154406923
 20
27.57450998447848
 30
0.0
 40
0.0274521509459532
100
AcDbArc
 50
122.0410322243566
 51
180.0
  0
ARC
  5
4111
330
40A1
100
AcDbEntity
  8
FORMAT
 62
     7
370
    35
100
AcDbCircle
 10
-88.98081758746014
 20
27.57643084749157
 30
0.0
 40
0.0274521509459532
100
AcDbArc
 50
0.0
 51
51.6418720694021
  0
ARC
  5
4112
330
40A1
100
AcDbEntity
  8
FORMAT
 62
     7
370
    35
100
AcDbCircle
 10
-90.41327506713107
 20
28.33565647970113
 30
0.0
 40
0.45753584909922
100
AcDbArc
 50
302.0410322243653
 51
329.3600439739059
  0
ARC
  5
4113
330
40A1
100
AcDbEntity
  8
FORMAT
 62
     7
370
    35
100
AcDbCircle
 10
-88.88303184684572
 20
28.11753414107852
 30
0.0
 40
0.45753584909922
100
AcDbArc
 50
149.3600439739059
 51
231.6418720693928
  0
LINE
  5
4114
330
40A1
100
AcDbEntity
  8
FORMAT
 62
     7
370
    35
100
AcDbLine
 10
-89.16696710469398
 20
27.75875869241804
 30
0.0
 11
-88.96378147198925
 21
27.59795737441129
 31
0.0
  0
LINE
  5
4115
330
40A1
100
AcDbEntity
  8
FORMAT
 62
     7
370
    35
100
AcDbLine
 10
-90.72982563641311
 20
27.59778030475468
 30
0.0
 11
-90.17054019473278
 21
27.94781780843084
 31
0.0
  0
LINE
  5
4116
330
40A1
100
AcDbEntity
  8
FORMAT
 62
     7
370
    35
100
AcDbLine
 10
-90.74271369501516
 20
27.52474362454939
 30
0.0
 11
-90.74271369501516
 21
27.57450998447848
 31
0.0
  0
LINE
  5
4117
330
40A1
100
AcDbEntity
  8
FORMAT
 62
     7
370
    35
100
AcDbLine
 10
-88.95336543651422
 20
27.52474362454939
 30
0.0
 11
-88.95336543651422
 21
27.57643084749157
 31
0.0
  0
ARC
  5
4118
330
40A1
100
AcDbEntity
  8
FORMAT
 62
     7
370
    35
100
AcDbCircle
 10
-90.80780993250504
 20
31.46312572501131
 30
0.0
 40
0.45753584909922
100
AcDbArc
 50
329.9129623574224
 51
54.32124068791685
  0
ARC
  5
4119
330
40A1
100
AcDbEntity
  8
FORMAT
 62
     7
370
    35
100
AcDbCircle
 10
-89.25823099750003
 20
31.25339126475865
 30
0.0
 40
0.45753584909922
100
AcDbArc
 50
118.8516001623736
 51
149.9129623574278
  0
ARC
  5
411A
330
40A1
100
AcDbEntity
  8
FORMAT
 62
     7
370
    35
100
AcDbCircle
 10
-90.68162562272094
 20
31.99467806086977
 30
0.0
 40
0.0183014339639688
100
AcDbArc
 50
90.0
 51
180.0
  0
ARC
  5
411B
330
40A1
100
AcDbEntity
  8
FORMAT
 62
     7
370
    35
100
AcDbCircle
 10
-88.96223373514819
 20
31.99467806086977
 30
0.0
 40
0.0183014339639688
100
AcDbArc
 50
0.0
 51
90.0
  0
ARC
  5
411C
330
40A1
100
AcDbEntity
  8
FORMAT
 62
     7
370
    35
100
AcDbCircle
 10
-90.67247490573903
 20
31.96300912108268
 30
0.0
 40
0.0274521509459532
100
AcDbArc
 50
180.0
 51
234.3212406879259
  0
ARC
  5
411D
330
40A1
100
AcDbEntity
  8
FORMAT
 62
     7
370
    35
100
AcDbCircle
 10
-88.97138445213011
 20
31.96514294886515
 30
0.0
 40
0.0274521509459532
100
AcDbArc
 50
298.8516001623447
 51
0.0
  0
LINE
  5
411E
330
40A1
100
AcDbEntity
  8
FORMAT
 62
     7
370
    35
100
AcDbLine
 10
-90.68848610143325
 20
31.94070974431998
 30
0.0
 11
-90.54095667093577
 21
31.8347820043889
 31
0.0
  0
LINE
  5
411F
330
40A1
100
AcDbEntity
  8
FORMAT
 62
     7
370
    35
100
AcDbLine
 10
-89.4790115695987
 20
31.65413431484785
 30
0.0
 11
-88.95813761780424
 21
31.94109836585983
 31
0.0
  0
LINE
  5
4120
330
40A1
100
AcDbEntity
  8
FORMAT
 62
     7
370
    35
100
AcDbLine
 10
-90.69992705668495
 20
31.96300912108268
 30
0.0
 11
-90.69992705668495
 21
31.99467806086977
 31
0.0
  0
LINE
  5
4121
330
40A1
100
AcDbEntity
  8
FORMAT
 62
     7
370
    35
100
AcDbLine
 10
-88.94393230118419
 20
31.96514294886515
 30
0.0
 11
-88.94393230118419
 21
31.99467806086977
 31
0.0
  0
ARC
  5
4122
330
40A1
100
AcDbEntity
  8
FORMAT
 62
     7
370
    35
100
AcDbCircle
 10
-93.86961446447413
 20
31.96780524655788
 30
0.0
 40
0.0274521509459532
100
AcDbArc
 50
300.6225974401173
 51
0.0
  0
ARC
  5
4123
330
40A1
100
AcDbEntity
  8
FORMAT
 62
     7
370
    35
100
AcDbCircle
 10
-93.86046374749209
 20
31.99467806086977
 30
0.0
 40
0.0183014339639688
100
AcDbArc
 50
0.0
 51
90.0
  0
ARC
  5
4124
330
40A1
100
AcDbEntity
  8
FORMAT
 62
     7
370
    35
100
AcDbCircle
 10
-96.82723114399449
 20
31.99467806086977
 30
0.0
 40
0.0183014339639688
100
AcDbArc
 50
90.0
 51
180.0
  0
ARC
  5
4125
330
40A1
100
AcDbEntity
  8
FORMAT
 62
     7
370
    35
100
AcDbCircle
 10
-96.81808042701256
 20
31.9658908444527
 30
0.0
 40
0.0274521509459532
100
AcDbArc
 50
180.0
 51
243.4349631225005
  0
ARC
  5
4126
330
40A1
100
AcDbEntity
  8
FORMAT
 62
     7
370
    35
100
AcDbCircle
 10
-93.82213986819113
 20
31.43232204972163
 30
0.0
 40
0.45753584909922
100
AcDbArc
 50
120.6225974401352
 51
210.6745406927818
  0
ARC
  5
4127
330
40A1
100
AcDbEntity
  8
FORMAT
 62
     7
370
    35
100
AcDbCircle
 10
-96.45814768126776
 20
31.24369158334537
 30
0.0
 40
0.45753584909922
100
AcDbArc
 50
30.67454069278179
 51
63.43496312249501
  0
LINE
  5
4128
330
40A1
100
AcDbEntity
  8
FORMAT
 62
     7
370
    35
100
AcDbLine
 10
-94.0551998690894
 20
31.82605049572499
 30
0.0
 11
-93.85563086442028
 21
31.94418153979768
 31
0.0
  0
LINE
  5
4129
330
40A1
100
AcDbEntity
  8
FORMAT
 62
     7
370
    35
100
AcDbLine
 10
-96.83035739601326
 20
31.94133689113119
 30
0.0
 11
-96.25353153125605
 21
31.65292413870395
 31
0.0
  0
LINE
  5
412A
330
40A1
100
AcDbEntity
  8
FORMAT
 62
     7
370
    35
100
AcDbLine
 10
-93.84216231352819
 20
31.96780524655788
 30
0.0
 11
-93.84216231352819
 21
31.99467806086977
 31
0.0
  0
LINE
  5
412B
330
40A1
100
AcDbEntity
  8
FORMAT
 62
     7
370
    35
100
AcDbLine
 10
-96.84553257795849
 20
31.9658908444527
 30
0.0
 11
-96.84553257795849
 21
31.99467806086977
 31
0.0
  0
LINE
  5
412C
330
40A1
100
AcDbEntity
  8
FORMAT
 62
     7
370
    35
100
AcDbLine
 10
-106.3533153395077
 20
28.33905465601379
 30
0.0
 11
-106.3810414132056
 21
28.37494693477322
 31
0.0
  0
ARC
  5
412D
330
40A1
100
AcDbEntity
  8
FORMAT
 62
     7
370
    35
100
AcDbCircle
 10
-106.01895687383
 20
28.65465006231409
 30
0.0
 40
0.45753584909922
100
AcDbArc
 50
180.0
 51
217.685374766131
  0
ARC
  5
412E
330
40A1
100
AcDbEntity
  8
FORMAT
 62
     7
370
    35
100
AcDbCircle
 10
-105.9912308001322
 20
28.61875778355477
 30
0.0
 40
0.45753584909922
100
AcDbArc
 50
217.685374766131
 51
257.6356445680817
  0
LINE
  5
412F
330
40A1
100
AcDbEntity
  8
FORMAT
 62
     7
370
    35
100
AcDbLine
 10
-105.5255397509952
 20
28.04827257217619
 30
0.0
 11
-106.0892018914377
 21
28.1718341676209
 31
0.0
  0
ARC
  5
4130
330
40A1
100
AcDbEntity
  8
FORMAT
 62
     7
370
    35
100
AcDbCircle
 10
-104.3255086290464
 20
36.62402065216543
 30
0.0
 40
8.659303079641354
100
AcDbArc
 50
262.0341483339034
 51
264.3484656952643
  0
ARC
  5
4131
330
40A1
100
AcDbEntity
  8
FORMAT
 62
     7
370
    35
100
AcDbCircle
 10
-103.3849490320029
 20
28.61875778332251
 30
0.0
 40
0.45753584909922
100
AcDbArc
 50
282.3643554319184
 51
322.314625233869
  0
LINE
  5
4132
330
40A1
100
AcDbEntity
  8
FORMAT
 62
     7
370
    35
100
AcDbLine
 10
-103.85064008114
 20
28.04827257194393
 30
0.0
 11
-103.2869779406975
 21
28.17183416738874
 31
0.0
  0
LINE
  5
4133
330
40A1
100
AcDbEntity
  8
FORMAT
 62
     7
370
    35
100
AcDbLine
 10
-103.0228644926275
 20
28.33905465578164
 30
0.0
 11
-102.9951384189296
 21
28.37494693454096
 31
0.0
  0
ARC
  5
4134
330
40A1
100
AcDbEntity
  8
FORMAT
 62
     7
370
    35
100
AcDbCircle
 10
-108.615477712504
 20
31.99467806086977
 30
0.0
 40
0.0183014339639688
100
AcDbArc
 50
90.0
 51
180.0
  0
ARC
  5
4135
330
40A1
100
AcDbEntity
  8
FORMAT
 62
     7
370
    35
100
AcDbCircle
 10
-105.9678444585007
 20
31.99467806086977
 30
0.0
 40
0.0183014339639688
100
AcDbArc
 50
0.0
 51
90.0
  0
ARC
  5
4136
330
40A1
100
AcDbEntity
  8
FORMAT
 62
     7
370
    35
100
AcDbCircle
 10
-108.6063269955219
 20
31.96223884050721
 30
0.0
 40
0.0274521509459532
100
AcDbArc
 50
180.0
 51
236.0496694967499
  0
ARC
  5
4137
330
40A1
100
AcDbEntity
  8
FORMAT
 62
     7
370
    35
100
AcDbCircle
 10
-105.9769951754826
 20
31.96226226991746
 30
0.0
 40
0.0274521509459532
100
AcDbArc
 50
303.9582570957616
 51
0.0
  0
ARC
  5
4138
330
40A1
100
AcDbEntity
  8
FORMAT
 62
     7
370
    35
100
AcDbCircle
 10
-108.5642463397538
 20
31.34924854232645
 30
0.0
 40
0.45753584909922
100
AcDbArc
 50
0.0
 51
56.049669496755
  0
ARC
  5
4139
330
40A1
100
AcDbEntity
  8
FORMAT
 62
     7
370
    35
100
AcDbCircle
 10
-106.01895687383
 20
31.34928915611249
 30
0.0
 40
0.45753584909922
100
AcDbArc
 50
123.9582570957579
 51
180.0
  0
LINE
  5
413A
330
40A1
100
AcDbEntity
  8
FORMAT
 62
     7
370
    35
100
AcDbLine
 10
-106.2745312559157
 20
31.72878986550904
 30
0.0
 11
-105.9616607125575
 21
31.93949222735375
 31
0.0
  0
LINE
  5
413B
330
40A1
100
AcDbEntity
  8
FORMAT
 62
     7
370
    35
100
AcDbLine
 10
-108.6216583081757
 20
31.93946667671298
 30
0.0
 11
-108.3087244621916
 21
31.72878460556422
 31
0.0
  0
LINE
  5
413C
330
40A1
100
AcDbEntity
  8
FORMAT
 62
     7
370
    35
100
AcDbLine
 10
-105.9495430245367
 20
31.96226226991746
 30
0.0
 11
-105.9495430245367
 21
31.99467806086977
 31
0.0
  0
LINE
  5
413D
330
40A1
100
AcDbEntity
  8
FORMAT
 62
     7
370
    35
100
AcDbLine
 10
-108.633779146468
 20
31.96223884050721
 30
0.0
 11
-108.633779146468
 21
31.99467806086977
 31
0.0
  0
ARC
  5
413E
330
40A1
100
AcDbEntity
  8
FORMAT
 62
     7
370
    35
100
AcDbCircle
 10
-103.3572229583052
 20
31.36065610273135
 30
0.0
 40
0.45753584909922
100
AcDbArc
 50
0.0
 51
53.80036358700421
  0
ARC
  5
413F
330
40A1
100
AcDbEntity
  8
FORMAT
 62
     7
370
    35
100
AcDbCircle
 10
-103.360014115451
 20
31.99432189722825
 30
0.0
 40
0.0183014339639688
100
AcDbArc
 50
90.0
 51
180.0
  0
ARC
  5
4140
330
40A1
100
AcDbEntity
  8
FORMAT
 62
     7
370
    35
100
AcDbCircle
 10
-103.3325619645051
 20
31.96628981285426
 30
0.0
 40
0.045753584909922
100
AcDbArc
 50
180.0
 51
233.8003635870042
  0
LINE
  5
4141
330
40A1
100
AcDbEntity
  8
FORMAT
 62
     7
370
    35
100
AcDbLine
 10
-103.3595840567713
 20
31.92936831421639
 30
0.0
 11
-103.0870020356433
 21
31.72987108911013
 31
0.0
  0
ARC
  5
4142
330
40A1
100
AcDbEntity
  8
FORMAT
 62
     7
370
    35
100
AcDbCircle
 10
-101.6472070422478
 20
31.97022069802313
 30
0.0
 40
0.045753584909922
100
AcDbArc
 50
303.5113754732228
 51
0.0
  0
ARC
  5
4143
330
40A1
100
AcDbEntity
  8
FORMAT
 62
     7
370
    35
100
AcDbCircle
 10
-101.6197548913019
 20
31.99432189722825
 30
0.0
 40
0.0183014339639688
100
AcDbArc
 50
0.0
 51
90.0
  0
LINE
  5
4144
330
40A1
100
AcDbEntity
  8
FORMAT
 62
     7
370
    35
100
AcDbLine
 10
-102.009880115385
 20
31.67519392669351
 30
0.0
 11
-101.6219463720944
 21
31.93207244674602
 31
0.0
  0
ARC
  5
4145
330
40A1
100
AcDbEntity
  8
FORMAT
 62
     7
370
    35
100
AcDbCircle
 10
-101.842681366075
 20
31.45746327339657
 30
0.0
 40
0.2745215094595321
100
AcDbArc
 50
127.5212181517774
 51
180.0
  0
LINE
  5
4146
330
40A1
100
AcDbEntity
  8
FORMAT
 62
     7
370
    35
100
AcDbLine
 10
-103.378315549415
 20
31.96628981285426
 30
0.0
 11
-103.378315549415
 21
31.99432189722825
 31
0.0
  0
LINE
  5
4147
330
40A1
100
AcDbEntity
  8
FORMAT
 62
     7
370
    35
100
AcDbLine
 10
-101.6014534573379
 20
31.97022069802313
 30
0.0
 11
-101.6014534573379
 21
31.9943218974604
 31
0.0
  0
LINE
  5
4148
330
40A1
100
AcDbEntity
  8
FORMAT
 62
     7
370
    35
100
AcDbLine
 10
-102.4085324227705
 20
27.7940884894108
 30
0.0
 11
-102.5751885911536
 21
27.67680707376462
 31
0.0
  0
ARC
  5
4149
330
40A1
100
AcDbEntity
  8
FORMAT
 62
     7
370
    35
100
AcDbCircle
 10
-102.8035066491834
 20
28.35534442941878
 30
0.0
 40
0.6863037736488302
100
AcDbArc
 50
305.1353088422732
 51
0.0
  0
LINE
  5
414A
330
40A1
100
AcDbEntity
  8
FORMAT
 62
     7
370
    35
100
AcDbLine
 10
-102.1172028755345
 20
28.35534442941878
 30
0.0
 11
-102.1172028755345
 21
31.45746327339657
 31
0.0
  0
ARC
  5
414B
330
40A1
100
AcDbEntity
  8
FORMAT
 62
     7
370
    35
100
AcDbCircle
 10
-98.25131184649931
 20
28.78461942236061
 30
0.0
 40
0.7778109434686744
100
AcDbArc
 50
180.0
 51
270.0
  0
ARC
  5
414C
330
40A1
100
AcDbEntity
  8
FORMAT
 62
     7
370
    35
100
AcDbCircle
 10
-101.1605219072257
 20
27.54221574463315
 30
0.0
 40
0.0915071698198441
100
AcDbArc
 50
125.1353088422674
 51
180.0
  0
ARC
  5
414D
330
40A1
100
AcDbEntity
  8
FORMAT
 62
     7
370
    35
100
AcDbCircle
 10
-101.3456443313422
 20
28.36304625455046
 30
0.0
 40
0.6863037736488302
100
AcDbArc
 50
305.1353088422732
 51
0.0
  0
ARC
  5
414E
330
40A1
100
AcDbEntity
  8
FORMAT
 62
     7
370
    35
100
AcDbCircle
 10
-101.2337276430816
 20
27.52474362454939
 30
0.0
 40
0.0183014339639688
100
AcDbArc
 50
180.0
 51
270.0
  0
LINE
  5
414F
330
40A1
100
AcDbEntity
  8
FORMAT
 62
     7
370
    35
100
AcDbLine
 10
-101.2520290770455
 20
27.54221574463315
 30
0.0
 11
-101.2520290770455
 21
27.52474362454939
 31
0.0
  0
LINE
  5
4150
330
40A1
100
AcDbEntity
  8
FORMAT
 62
     7
370
    35
100
AcDbLine
 10
-100.9506701049295
 20
27.80179031454236
 30
0.0
 11
-101.213185137414
 21
27.61704986996756
 31
0.0
  0
LINE
  5
4151
330
40A1
100
AcDbEntity
  8
FORMAT
 62
     7
370
    35
100
AcDbLine
 10
-105.1782595710583
 20
28.00680847791888
 30
0.0
 11
-104.1979202587306
 21
28.00680847791888
 31
0.0
  0
ARC
  5
4152
330
40A1
100
AcDbEntity
  8
FORMAT
 62
     7
370
    35
100
AcDbCircle
 10
-100.9338620671528
 20
31.45040875412929
 30
0.0
 40
0.2745215094595321
100
AcDbArc
 50
0.0
 51
54.82366186720803
  0
ARC
  5
4153
330
40A1
100
AcDbEntity
  8
FORMAT
 62
     7
370
    35
100
AcDbCircle
 10
-98.7546012805085
 20
31.45097171384714
 30
0.0
 40
0.2745215094595321
100
AcDbArc
 50
125.3616783504019
 51
180.0
  0
LINE
  5
4154
330
40A1
100
AcDbEntity
  8
FORMAT
 62
     7
370
    35
100
AcDbLine
 10
-98.53194920746069
 20
31.94560175465336
 30
0.0
 11
-98.91347672061341
 21
31.67484813888416
 31
0.0
  0
LINE
  5
4155
330
40A1
100
AcDbEntity
  8
FORMAT
 62
     7
370
    35
100
AcDbLine
 10
-101.1599947841208
 20
31.94564226299747
 30
0.0
 11
-100.7757116518091
 21
31.67479793676193
 31
0.0
  0
ARC
  5
4156
330
40A1
100
AcDbEntity
  8
FORMAT
 62
     7
370
    35
100
AcDbCircle
 10
-101.1448913082801
 20
31.98883109893496
 30
0.0
 40
0.045753584909922
100
AcDbArc
 50
180.0
 51
250.724866313083
  0
ARC
  5
4157
330
40A1
100
AcDbEntity
  8
FORMAT
 62
     7
370
    35
100
AcDbCircle
 10
-101.172343459226
 20
31.99467806086977
 30
0.0
 40
0.0183014339639688
100
AcDbArc
 50
90.0
 51
180.0
  0
ARC
  5
4158
330
40A1
100
AcDbEntity
  8
FORMAT
 62
     7
370
    35
100
AcDbCircle
 10
-98.51969151128969
 20
31.99467806086977
 30
0.0
 40
0.0183014339639688
100
AcDbArc
 50
0.0
 51
90.0
  0
ARC
  5
4159
330
40A1
100
AcDbEntity
  8
FORMAT
 62
     7
370
    35
100
AcDbCircle
 10
-98.54714366223571
 20
31.98875866691777
 30
0.0
 40
0.045753584909922
100
AcDbArc
 50
289.3958740160678
 51
0.0
  0
LINE
  5
415A
330
40A1
100
AcDbEntity
  8
FORMAT
 62
     7
370
    35
100
AcDbLine
 10
-101.19064489319
 20
31.98883109893496
 30
0.0
 11
-101.19064489319
 21
31.99467806086977
 31
0.0
  0
LINE
  5
415B
330
40A1
100
AcDbEntity
  8
FORMAT
 62
     7
370
    35
100
AcDbLine
 10
-98.50139007732582
 20
31.98875866691777
 30
0.0
 11
-98.50139007732572
 21
31.99467806086977
 31
0.0
  0
LINE
  5
415C
330
40A1
100
AcDbEntity
  8
FORMAT
 62
     7
370
    35
100
AcDbLine
 10
-103.360014115451
 20
32.01262333119212
 30
0.0
 11
-101.6197548915513
 21
32.01262333119212
 31
0.0
  0
ARC
  5
415D
330
40A1
100
AcDbEntity
  8
FORMAT
 62
     7
370
    35
100
AcDbCircle
 10
-105.0506712030887
 20
36.62402065193328
 30
0.0
 40
9.311390711220957
100
AcDbArc
 50
261.6064190564231
 51
284.4688421434995
  0
ARC
  5
415E
330
40A1
100
AcDbEntity
  8
FORMAT
 62
     7
370
    35
100
AcDbCircle
 10
-105.0506712030887
 20
36.62402065193328
 30
0.0
 40
8.659303079641354
100
AcDbArc
 50
275.6515343203404
 51
277.9658516660966
  0
LINE
  5
415F
330
40A1
100
AcDbEntity
  8
FORMAT
 62
     7
370
    35
100
AcDbLine
 10
-108.615477712504
 20
32.01297949483376
 30
0.0
 11
-105.9678444585007
 21
32.01297949483376
 31
0.0
  0
LINE
  5
4160
330
40A1
100
AcDbEntity
  8
FORMAT
 62
     7
370
    35
100
AcDbLine
 10
-101.2337276430816
 20
27.5064421905854
 30
0.0
 11
-95.60426403237636
 21
27.5064421905854
 31
0.0
  0
LINE
  5
4161
330
40A1
100
AcDbEntity
  8
FORMAT
 62
     7
370
    35
100
AcDbLine
 10
-95.60426403237636
 20
27.5064421905854
 30
0.0
 11
-95.36662873832847
 21
28.89097915766672
 31
0.0
  0
LINE
  5
4162
330
40A1
100
AcDbEntity
  8
FORMAT
 62
     7
370
    35
100
AcDbLine
 10
-98.25131184649931
 20
28.00680847889203
 30
0.0
 11
-96.46242924072613
 21
28.00680847889203
 31
0.0
  0
LINE
  5
4163
330
40A1
100
AcDbEntity
  8
FORMAT
 62
     7
370
    35
100
AcDbLine
 10
-102.8996871092059
 20
28.65465006208194
 30
0.0
 11
-102.8996871092059
 21
31.36065610273135
 31
0.0
  0
LINE
  5
4164
330
40A1
100
AcDbEntity
  8
FORMAT
 62
     7
370
    35
100
AcDbLine
 10
-100.6593405576932
 20
28.36304625455046
 30
0.0
 11
-100.6593405576932
 21
31.45040875412929
 31
0.0
  0
LINE
  5
4165
330
40A1
100
AcDbEntity
  8
FORMAT
 62
     7
370
    35
100
AcDbLine
 10
-99.02912278996806
 20
28.78461942236061
 30
0.0
 11
-99.02912278996806
 21
31.45097171384714
 31
0.0
  0
LINE
  5
4166
330
40A1
100
AcDbEntity
  8
FORMAT
 62
     7
370
    35
100
AcDbLine
 10
-93.70940734696205
 20
27.5064421905854
 30
0.0
 11
-91.95791027794951
 21
27.5064421905854
 31
0.0
  0
LINE
  5
4167
330
40A1
100
AcDbEntity
  8
FORMAT
 62
     7
370
    35
100
AcDbLine
 10
-93.70940734696205
 20
27.5064421905854
 30
0.0
 11
-96.06463068475401
 21
31.47710843506286
 31
0.0
  0
LINE
  5
4168
330
40A1
100
AcDbEntity
  8
FORMAT
 62
     7
370
    35
100
AcDbLine
 10
-92.30165464761148
 20
27.97209274530758
 30
0.0
 11
-94.21565686470492
 21
31.19890519800413
 31
0.0
  0
LINE
  5
4169
330
40A1
100
AcDbEntity
  8
FORMAT
 62
     7
370
    35
100
AcDbLine
 10
-92.30165464761148
 20
27.97209274530758
 30
0.0
 11
-90.41192024094973
 21
31.23375614260942
 31
0.0
  0
LINE
  5
416A
330
40A1
100
AcDbEntity
  8
FORMAT
 62
     7
370
    35
100
AcDbLine
 10
-91.95791027794951
 20
27.5064421905854
 30
0.0
 11
-89.65412068905539
 21
31.48276084716054
 31
0.0
  0
LINE
  5
416B
330
40A1
100
AcDbEntity
  8
FORMAT
 62
     7
370
    35
100
AcDbLine
 10
-86.13029878463748
 20
29.36493950247825
 30
0.0
 11
-87.37809309457224
 21
31.55596132119024
 31
0.0
  0
LINE
  5
416C
330
40A1
100
AcDbEntity
  8
FORMAT
 62
     7
370
    35
100
AcDbLine
 10
-88.67592297763442
 20
29.36493950247825
 30
0.0
 11
-87.37809309457224
 21
31.55596132119024
 31
0.0
  0
LINE
  5
416D
330
40A1
100
AcDbEntity
  8
FORMAT
 62
     7
370
    35
100
AcDbLine
 10
-90.68162562272094
 20
32.01297949483376
 30
0.0
 11
-88.96223373514819
 21
32.01297949483376
 31
0.0
  0
LINE
  5
416E
330
40A1
100
AcDbEntity
  8
FORMAT
 62
     7
370
    35
100
AcDbLine
 10
-96.82723114399449
 20
32.01297949483376
 30
0.0
 11
-93.86046374749209
 21
32.01297949483376
 31
0.0
  0
LINE
  5
416F
330
40A1
100
AcDbEntity
  8
FORMAT
 62
     7
370
    35
100
AcDbLine
 10
-87.70327028715676
 20
32.01297949483376
 30
0.0
 11
-85.92226851276519
 21
32.01297949483376
 31
0.0
  0
LINE
  5
4170
330
40A1
100
AcDbEntity
  8
FORMAT
 62
     7
370
    35
100
AcDbLine
 10
-85.83050492049492
 20
27.5064421905854
 30
0.0
 11
-82.74721630729311
 21
27.5064421905854
 31
0.0
  0
LINE
  5
4171
330
40A1
100
AcDbEntity
  8
FORMAT
 62
     7
370
    35
100
AcDbLine
 10
-90.72441226105116
 20
27.5064421905854
 30
0.0
 11
-88.97166687047819
 21
27.5064421905854
 31
0.0
  0
LINE
  5
4172
330
40A1
100
AcDbEntity
  8
FORMAT
 62
     7
370
    35
100
AcDbLine
 10
-89.27668966587885
 20
28.35071341701235
 30
0.0
 11
-88.97487365148391
 21
28.8602451217498
 31
0.0
  0
LINE
  5
4173
330
40A1
100
AcDbEntity
  8
FORMAT
 62
     7
370
    35
100
AcDbLine
 10
-85.54471972893962
 20
28.33671195135082
 30
0.0
 11
-85.84287363389249
 21
28.8602451217498
 31
0.0
  0
LINE
  5
4174
330
40A1
100
AcDbEntity
  8
FORMAT
 62
     7
370
    35
100
AcDbLine
 10
-90.01961724809792
 20
28.10247720376731
 30
0.0
 11
-87.70327028715676
 21
32.01297949483376
 31
0.0
  0
LINE
  5
4175
330
40A1
100
AcDbEntity
  8
FORMAT
 62
     7
370
    35
100
AcDbLine
 10
-83.54691109954911
 20
28.11060660152441
 30
0.0
 11
-85.92226851276519
 21
32.01297949483376
 31
0.0
  0
LINE
  5
4176
330
40A1
100
AcDbEntity
  8
FORMAT
 62
     7
370
    35
100
AcDbLine
 10
-106.4764927229292
 20
28.65465006231409
 30
0.0
 11
-106.4764927229292
 21
31.34928915611249
 31
0.0
  0
LINE
  5
4177
330
40A1
100
AcDbEntity
  8
FORMAT
 62
     7
370
    35
100
AcDbLine
 10
-108.1067104906547
 20
28.61372472329686
 30
0.0
 11
-108.1067104906547
 21
31.34924854232645
 31
0.0
  0
LINE
  5
4178
330
40A1
100
AcDbEntity
  8
FORMAT
 62
     7
370
    35
100
AcDbLine
 10
-88.67592297763442
 20
29.36493950247825
 30
0.0
 11
-86.13029878463748
 21
29.36493950247825
 31
0.0
  0
LINE
  5
4179
330
40A1
100
AcDbEntity
  8
FORMAT
 62
     7
370
    35
100
AcDbLine
 10
-88.97487365148391
 20
28.8602451217498
 30
0.0
 11
-85.84287363389249
 21
28.8602451217498
 31
0.0
  0
LINE
  5
417A
330
40A1
100
AcDbEntity
  8
FORMAT
 62
     7
370
    35
100
AcDbLine
 10
-101.172343459226
 20
32.01297949483376
 30
0.0
 11
-98.51969151128969
 21
32.01297949483376
 31
0.0
  0
LINE
  5
417B
330
40A1
100
AcDbEntity
  8
FORMAT
 62
     7
370
    18
100
AcDbLine
 10
-175.0
 20
63.99999999999999
 30
0.0
 11
-175.0
 21
82.0
 31
0.0
  0
LINE
  5
417C
330
40A1
100
AcDbEntity
  8
FORMAT
 62
     7
370
    18
100
AcDbLine
 10
-175.0
 20
82.0
 30
0.0
 11
-168.0
 21
82.0
 31
0.0
  0
ATTDEF
  5
417D
102
{ACAD_XDICTIONARY
360
417E
102
}
330
40A1
100
AcDbEntity
  8
FORMAT
 62
     7
370
    18
100
AcDbText
 10
-51.0
 20
2.149999999999999
 30
0.0
 40
6.7
  1

 41
0.76
  7
ULVAC
 72
     1
 11
-51.0
 21
5.5
 31
0.0
100
AcDbAttributeDefinition
  3
DWG.No
  2
DWG.NO{11.28}
 70
     0
 74
     2
  0
ATTDEF
  5
417F
330
40A1
100
AcDbEntity
  8
FORMAT
 62
     7
370
    18
100
AcDbText
 10
-37.00000000000001
 20
13.93185508476986
 30
0.0
 40
6.7
  1

 41
0.76
  7
ULVAC
 72
     1
 11
-37.00000000000001
 21
17.28185508476986
 31
0.0
100
AcDbAttributeDefinition
  3
Title
  2
TITLE{10.56}
 70
     0
 74
     2
  0
ATTDEF
  5
4180
330
40A1
100
AcDbEntity
  8
FORMAT
 62
     7
370
    18
100
AcDbText
 10
-37.0
 20
24.40681827251014
 30
0.0
 40
4.469999999999998
  1

 41
0.76
  7
ULVAC
 72
     1
 11
-37.0
 21
26.64181827251014
 31
0.0
100
AcDbAttributeDefinition
  3
Subtitle
  2
SUBTITLE{15.19}
 70
     0
 74
     2
  0
ATTDEF
  5
4181
330
40A1
100
AcDbEntity
  8
FORMAT
 62
     7
370
    18
100
AcDbText
 10
-157.0
 20
55.99999998761927
 30
0.0
 40
3.229999999999998
  1

 41
0.76
  7
ULVAC
 11
-157.0
 21
55.99999998761927
 31
0.0
100
AcDbAttributeDefinition
  3
Posting Check DWG.No
  2
POSTING_CHECK_DWG.NO{9.83}
 70
     0
 74
     1
  0
ATTDEF
  5
4182
330
40A1
100
AcDbEntity
  8
FORMAT
 62
     7
370
    18
100
AcDbText
 10
-111.2500001643417
 20
55.99999998761928
 30
0.0
 40
3.229999999999998
  1

 41
0.76
  7
ULVAC
 72
     1
 11
-111.2500001643417
 21
57.61499998761928
 31
0.0
100
AcDbAttributeDefinition
  3
Posting Check Date
  2
POSTING_CHECK_DATE{5.57}
 70
     0
 74
     2
  0
ATTDEF
  5
4183
330
40A1
100
AcDbEntity
  8
FORMAT
 62
     7
370
    18
100
AcDbText
 10
-86.62500016434178
 20
55.99999998761928
 30
0.0
 40
3.43
  1

 41
0.76
  7
ULVAC
 72
     1
 11
-86.62500016434178
 21
57.71499998761928
 31
0.0
100
AcDbAttributeDefinition
  3
Posting Check Name
  2
POSTING_CHECK_NAME{5.05}
 70
     0
 74
     2
  0
ATTDEF
  5
4184
330
40A1
100
AcDbEntity
  8
FORMAT
 62
     7
370
    18
100
AcDbText
 10
-157.0
 20
48.19809251500387
 30
0.0
 40
3.229999999999998
  1

 41
0.76
  7
ULVAC
 11
-157.0
 21
48.19809251500387
 31
0.0
100
AcDbAttributeDefinition
  3
Reference DWG.No
  2
ORIGINAL_DWG.NO{15.48}
 70
     0
 74
     1
  0
ATTDEF
  5
4185
330
40A1
100
AcDbEntity
  8
FORMAT
 62
     7
370
    18
100
AcDbText
 10
-84.50000000000001
 20
48.02332200000002
 30
0.0
 40
3.91
  1

 41
0.76
  7
ULVAC
 72
     1
 11
-84.50000000000001
 21
49.97832200000002
 31
0.0
100
AcDbAttributeDefinition
  3
Weight(kg)
  2
WEIGHT(KG){4.83}
 70
     0
 74
     2
  0
ATTDEF
  5
4186
330
40A1
100
AcDbEntity
  8
FORMAT
 62
     7
370
    18
100
AcDbText
 10
-86.0
 20
19.785
 30
0.0
 40
3.43
  1

 41
0.76
  7
ULVAC
 72
     1
 11
-86.0
 21
21.5
 31
0.0
100
AcDbAttributeDefinition
  3
Scale
  2
SCALE{5.25}
 70
     0
 74
     2
  0
ATTDEF
  5
4187
330
40A1
100
AcDbEntity
  8
FORMAT
 62
     7
370
    18
100
AcDbText
 10
-86.0
 20
12.885
 30
0.0
 40
3.229999999999998
  1

 41
0.76
  7
ULVAC
 72
     1
 11
-86.0
 21
14.5
 31
0.0
100
AcDbAttributeDefinition
  3
Draft Date
  2
GEN-TITLE-DAT{5.57}
 70
     0
 74
     2
  0
ATTDEF
  5
4188
330
40A1
100
AcDbEntity
  8
FORMAT
 62
     7
370
    18
100
AcDbText
 10
-119.0
 20
17.285
 30
0.0
 40
3.43
  1

 41
0.76
  7
ULVAC
 72
     1
 11
-119.0
 21
19.0
 31
0.0
100
AcDbAttributeDefinition
  3
Drawn by(ULVAC)
  2
DRAWN_BY(ULVAC){4.08}
 70
     0
 74
     2
  0
ATTDEF
  5
4189
330
40A1
100
AcDbEntity
  8
FORMAT
 62
     7
370
    18
100
AcDbText
 10
-119.0
 20
20.785
 30
0.0
 40
3.43
  1

 41
0.76
  7
ULVAC
 72
     1
 11
-119.0
 21
22.5
 31
0.0
100
AcDbAttributeDefinition
  3
Company name(Outsource Co.)
  2
COMPANY_NAME(OUTSOURCE_COMPANY){4.08}
 70
     0
 74
     2
  0
ATTDEF
  5
418A
330
40A1
100
AcDbEntity
  8
FORMAT
 62
     7
370
    18
100
AcDbText
 10
-119.0
 20
13.785
 30
0.0
 40
3.43
  1

 41
0.76
  7
ULVAC
 72
     1
 11
-119.0
 21
15.5
 31
0.0
100
AcDbAttributeDefinition
  3
Drawn by(Outsource Co.)
  2
DRAWN_BY(OUTSOURCE_COMPANY){4.08}
 70
     0
 74
     2
  0
ATTDEF
  5
418B
330
40A1
100
AcDbEntity
  8
FORMAT
 62
     7
370
    18
100
AcDbText
 10
-7.635737878938583
 20
5.51107873797938
 30
0.0
 40
3.799999999999998
  1

 41
0.76
  7
ULVAC
 72
     1
 11
-7.635737878938583
 21
7.411078737979379
 31
0.0
100
AcDbAttributeDefinition
  3
Sheet Number
  2
SHEET_NUMBER
 70
     0
 74
     2
  0
ATTDEF
  5
418C
330
40A1
100
AcDbEntity
  8
FORMAT
 62
     7
370
    18
100
AcDbText
 10
-3.748109068892631
 20
1.321369442882235
 30
0.0
 40
3.799999999999998
  1

 41
0.76
  7
ULVAC
 72
     1
 11
-3.748109068892631
 21
3.221369442882235
 31
0.0
100
AcDbAttributeDefinition
  3
Total Sheet Number
  2
TOTAL_SHEET_NUMBER
 70
     0
 74
     2
  0
ATTDEF
  5
418D
330
40A1
100
AcDbEntity
  8
FORMAT
 62
     7
370
    18
100
AcDbText
 10
-71.20593264921258
 20
47.50008705813199
 30
0.0
 40
1.8
  1
B
 41
0.76
  7
ULVAC
 72
     1
 11
-70.74993264921258
 21
48.40008705813199
 31
0.0
100
AcDbAttributeDefinition
  3
Revision1-Mark
  2
REVISION1-MARK
 70
     0
 74
     2
  0
ATTDEF
  5
418E
330
40A1
100
AcDbEntity
  8
FORMAT
 62
     7
370
    18
100
AcDbText
 10
-62.43714652896624
 20
47.42147597695095
 30
0.0
 40
3.229999999999998
  1

 41
0.76
  7
ULVAC
 72
     1
 11
-62.43714652896624
 21
49.03647597695095
 31
0.0
100
AcDbAttributeDefinition
  3
Revision1-Quantity
  2
REVISION1-QUANTITY
 70
     0
 74
     2
  0
ATTDEF
  5
418F
330
40A1
100
AcDbEntity
  8
FORMAT
 62
     7
370
    18
100
AcDbText
 10
-48.0
 20
47.385
 30
0.0
 40
3.229999999999998
  1

 41
0.76
  7
ULVAC
 72
     1
 11
-48.0
 21
49.0
 31
0.0
100
AcDbAttributeDefinition
  3
Revision1-Date
  2
REVISION1-DATE{6.78}
 70
     0
 74
     2
  0
ATTDEF
  5
4190
330
40A1
100
AcDbEntity
  8
FORMAT
 62
     7
370
    18
100
AcDbText
 10
-18.5
 20
47.385
 30
0.0
 40
3.229999999999998
  1

 41
0.76
  7
ULVAC
 72
     1
 11
-18.5
 21
49.0
 31
0.0
100
AcDbAttributeDefinition
  3
Revision1-Remarks
  2
REVISION1-REMARKS{11.42}
 70
     0
 74
     2
  0
ATTDEF
  5
4191
330
40A1
100
AcDbEntity
  8
FORMAT
 62
     7
370
    18
100
AcDbText
 10
-71.2059445479056
 20
53.50010609256231
 30
0.0
 40
1.8
  1
C
 41
0.76
  7
ULVAC
 72
     1
 11
-70.7499445479056
 21
54.40010609256231
 31
0.0
100
AcDbAttributeDefinition
  3
Revision2-Mark
  2
REVISION2-MARK
 70
     0
 74
     2
  0
ATTDEF
  5
4192
330
40A1
100
AcDbEntity
  8
FORMAT
 62
     7
370
    18
100
AcDbText
 10
-62.43714652896624
 20
53.42147597695095
 30
0.0
 40
3.229999999999998
  1

 41
0.76
  7
ULVAC
 72
     1
 11
-62.43714652896624
 21
55.03647597695096
 31
0.0
100
AcDbAttributeDefinition
  3
Revision2-Quantity
  2
REVISION2-QUANTITY
 70
     0
 74
     2
  0
ATTDEF
  5
4193
330
40A1
100
AcDbEntity
  8
FORMAT
 62
     7
370
    18
100
AcDbText
 10
-48.0
 20
53.38499999999999
 30
0.0
 40
3.229999999999998
  1

 41
0.76
  7
ULVAC
 72
     1
 11
-48.0
 21
55.0
 31
0.0
100
AcDbAttributeDefinition
  3
Revision2-Date
  2
REVISION2-DATE{6.78}
 70
     0
 74
     2
  0
ATTDEF
  5
4194
330
40A1
100
AcDbEntity
  8
FORMAT
 62
     7
370
    18
100
AcDbText
 10
-18.5
 20
53.38499999999999
 30
0.0
 40
3.229999999999998
  1

 41
0.76
  7
ULVAC
 72
     1
 11
-18.5
 21
55.0
 31
0.0
100
AcDbAttributeDefinition
  3
Revision2-Remarks
  2
REVISION2-REMARKS{11.42}
 70
     0
 74
     2
  0
ATTDEF
  5
4195
330
40A1
100
AcDbEntity
  8
FORMAT
 62
     7
370
    18
100
AcDbText
 10
-71.20592940415353
 20
59.50011401600637
 30
0.0
 40
1.8
  1
D
 41
0.76
  7
ULVAC
 72
     1
 11
-70.74992940415353
 21
60.40011401600636
 31
0.0
100
AcDbAttributeDefinition
  3
Revision3-Mark
  2
REVISION3-MARK
 70
     0
 74
     2
  0
ATTDEF
  5
4196
330
40A1
100
AcDbEntity
  8
FORMAT
 62
     7
370
    18
100
AcDbText
 10
-62.43714652896624
 20
59.42147597695095
 30
0.0
 40
3.229999999999998
  1

 41
0.76
  7
ULVAC
 72
     1
 11
-62.43714652896624
 21
61.03647597695095
 31
0.0
100
AcDbAttributeDefinition
  3
Revision3-Quantity
  2
REVISION3-QUANTITY
 70
     0
 74
     2
  0
ATTDEF
  5
4197
330
40A1
100
AcDbEntity
  8
FORMAT
 62
     7
370
    18
100
AcDbText
 10
-48.0
 20
59.385
 30
0.0
 40
3.229999999999998
  1

 41
0.76
  7
ULVAC
 72
     1
 11
-48.0
 21
61.0
 31
0.0
100
AcDbAttributeDefinition
  3
Revision3-Date
  2
REVISION3-DATE{6.78}
 70
     0
 74
     2
  0
ATTDEF
  5
4198
330
40A1
100
AcDbEntity
  8
FORMAT
 62
     7
370
    18
100
AcDbText
 10
-18.5
 20
59.385
 30
0.0
 40
3.229999999999998
  1

 41
0.76
  7
ULVAC
 72
     1
 11
-18.5
 21
61.0
 31
0.0
100
AcDbAttributeDefinition
  3
Revision3-Remarks
  2
REVISION3-REMARKS{11.42}
 70
     0
 74
     2
  0
ATTDEF
  5
4199
330
40A1
100
AcDbEntity
  8
FORMAT
 62
     7
370
    18
100
AcDbText
 10
-135.0
 20
19.0
 30
0.0
 40
2.0
  1

 41
0.76
  7
ULVAC
100
AcDbAttributeDefinition
  3
Designed by
  2
_SEKKEI
 70
     1
  0
ATTDEF
  5
419A
330
40A1
100
AcDbEntity
  8
FORMAT
 62
     7
370
    18
100
AcDbText
 10
-151.0
 20
19.0
 30
0.0
 40
2.0
  1

 41
0.76
  7
ULVAC
100
AcDbAttributeDefinition
  3
Checked by
  2
_KENZU
 70
     1
  0
ATTDEF
  5
419B
330
40A1
100
AcDbEntity
  8
FORMAT
 62
     7
370
    18
100
AcDbText
 10
-167.0
 20
19.0
 30
0.0
 40
2.0
  1

 41
0.76
  7
ULVAC
100
AcDbAttributeDefinition
  3
Approved by
  2
_SYONIN
 70
     1
  0
MTEXT
  5
419C
330
40A1
100
AcDbEntity
  8
TEXT
 62
     7
 48
0.5
370
    18
100
AcDbMText
 10
-102.5713854721332
 20
48.31725132224033
 30
0.0
 40
3.0
 41
0.0
 71
     4
 72
     1
  1
\W0.8;重量
  7
ULVAC
 73
     1
 44
0.935885
1001
ACAD
1000
MTEXTBEGIN
1070
    73
1070
     1
1070
    44
1040
0.935885
1070
    74
1070
     0
1000
MTEXTEND
  0
MTEXT
  5
419D
330
40A1
100
AcDbEntity
  8
TEXT
 62
     7
 48
0.5
370
    18
100
AcDbMText
 10
-102.5713854721332
 20
52.31725132224035
 30
0.0
 40
3.0
 41
0.0
 71
     4
 72
     1
  1
\W0.8;計算
  7
ULVAC
 73
     1
 44
0.935885
1001
ACAD
1000
MTEXTBEGIN
1070
    73
1070
     1
1070
    44
1040
0.935885
1070
    74
1070
     0
1000
MTEXTEND
  0
LINE
  5
419E
330
40A1
100
AcDbEntity
  8
FORMAT
 62
     7
370
    18
100
AcDbLine
 10
-95.0
 20
46.0
 30
0.0
 11
-95.0
 21
36.0
 31
0.0
  0
INSERT
  5
419F
330
40A1
100
AcDbEntity
  8
PROFILE2
100
AcDbBlockReference
 66
     1
  2
ULVAC_ballon
 10
-108.615477712504
 20
32.01297949483374
 30
0.0
 41
0.00000001
 42
0.00000001
 43
0.00000001
  0
ATTRIB
  5
41A0
330
419F
100
AcDbEntity
  8
0
  6
ByBlock
 62
     0
370
    -2
100
AcDbText
 10
-108.615477712504
 20
32.01297947483374
 30
0.0
 40
0.00000004
  1

 41
0.76
  7
ULVAC
 72
     1
 11
-108.615477712504
 21
32.01297949483374
 31
0.0
100
AcDbAttribute
  2
ITEM
 70
     0
 74
     2
  0
SEQEND
  5
41A1
330
419F
100
AcDbEntity
  8
PROFILE2
  0
ENDBLK
  5
41A5
330
40A1
100
AcDbEntity
  8
0
 48
0.5
100
AcDbBlockEnd
  0
BLOCK
  5
41CF
330
41CE
100
AcDbEntity
  8
0
370
    -2
100
AcDbBlockBegin
  2
BW-14_SC_1
 70
     0
 10
0.0
 20
0.0
 30
0.0
  3
BW-14_SC_1
  1

  0
ARC
  5
41D0
330
41CE
100
AcDbEntity
  8
PROFILE2
 48
0.5
100
AcDbCircle
 10
-30.0
 20
-11.0
 30
0.0
 40
10.0
100
AcDbArc
 50
160.5622291972055
 51
162.2327295436505
  0
ARC
  5
41D1
330
41CE
100
AcDbEntity
  8
PROFILE2
 48
0.5
100
AcDbCircle
 10
-30.0
 20
-11.0
 30
0.0
 40
10.0
100
AcDbArc
 50
228.1639618479807
 51
0.0
  0
ARC
  5
41D2
330
41CE
100
AcDbEntity
  8
PROFILE2
 48
0.5
100
AcDbCircle
 10
-30.0
 20
-11.0
 30
0.0
 40
10.0
100
AcDbArc
 50
0.0
 51
131.8360381520193
  0
ARC
  5
41D3
330
41CE
100
AcDbEntity
  8
PROFILE2
 48
0.5
100
AcDbCircle
 10
30.0
 20
-11.0
 30
0.0
 40
10.0
100
AcDbArc
 50
48.13304317546978
 51
311.8669292764025
  0
CIRCLE
  5
41D4
330
41CE
100
AcDbEntity
  8
PROFILE2
 48
0.5
100
AcDbCircle
 10
-30.0
 20
-11.0
 30
0.0
 40
7.47499942779541
  0
CIRCLE
  5
41D5
330
41CE
100
AcDbEntity
  8
PROFILE2
 48
0.5
100
AcDbCircle
 10
30.0
 20
-11.0
 30
0.0
 40
7.47499942779541
  0
CIRCLE
  5
41D6
330
41CE
100
AcDbEntity
  8
PROFILE1
 48
0.5
100
AcDbCircle
 10
-30.0
 20
-11.0
 30
0.0
 40
8.331000328063963
  0
CIRCLE
  5
41D7
330
41CE
100
AcDbEntity
  8
PROFILE1
 48
0.5
100
AcDbCircle
 10
30.0
 20
-11.0
 30
0.0
 40
8.331000328063963
  0
ARC
  5
41D8
330
41CE
100
AcDbEntity
  8
PROFILE2
 48
0.5
100
AcDbCircle
 10
0.0
 20
17.5
 30
0.0
 40
2.5
100
AcDbArc
 50
89.99998201391065
 51
270.0000006832453
  0
ARC
  5
41D9
330
41CE
100
AcDbEntity
  8
CENTER1
 48
0.5
100
AcDbCircle
 10
-7.0
 20
19.0
 30
0.0
 40
8.0
100
AcDbArc
 50
179.9999813306653
 51
270.0000179860893
  0
ARC
  5
41DA
330
41CE
100
AcDbEntity
  8
PROFILE2
 48
0.5
100
AcDbCircle
 10
-7.0
 20
19.0
 30
0.0
 40
12.0
100
AcDbArc
 50
179.9999813306653
 51
270.0000179860893
  0
ARC
  5
41DB
330
41CE
100
AcDbEntity
  8
PROFILE2
 48
0.5
100
AcDbCircle
 10
-7.0
 20
19.0
 30
0.0
 40
4.0
100
AcDbArc
 50
179.9999813306653
 51
270.0000179860893
  0
ARC
  5
41DC
330
41CE
100
AcDbEntity
  8
PROFILE2
 48
0.5
100
AcDbCircle
 10
-15.0
 20
19.0
 30
0.0
 40
4.0
100
AcDbArc
 50
0.0
 51
179.9999640278213
  0
ARC
  5
41DD
330
41CE
100
AcDbEntity
  8
PROFILE2
 48
0.5
100
AcDbCircle
 10
-30.0
 20
11.0
 30
0.0
 40
4.0
100
AcDbArc
 50
0.0
 51
179.9999640278213
  0
ARC
  5
41DE
330
41CE
100
AcDbEntity
  8
PROFILE2
 48
0.5
100
AcDbCircle
 10
110.4403991699218
 20
9.5
 30
0.0
 40
5.5
100
AcDbArc
 50
0.0
 51
89.99998201391065
  0
ARC
  5
41DF
330
41CE
100
AcDbEntity
  8
PROFILE2
 48
0.5
100
AcDbCircle
 10
110.4403991699218
 20
9.5
 30
0.0
 40
10.5
100
AcDbArc
 50
0.0
 51
89.99998201391065
  0
ARC
  5
41E0
330
41CE
100
AcDbEntity
  8
CENTER1
 48
0.5
100
AcDbCircle
 10
110.4403991699218
 20
9.5
 30
0.0
 40
8.0
100
AcDbArc
 50
0.0
 51
89.99998201391065
  0
ARC
  5
41E1
330
41CE
100
AcDbEntity
  8
PROFILE2
 48
0.5
100
AcDbCircle
 10
-110.4403991699218
 20
9.5
 30
0.0
 40
10.5
100
AcDbArc
 50
89.99998201391065
 51
179.9999640278213
  0
ARC
  5
41E2
330
41CE
100
AcDbEntity
  8
PROFILE2
 48
0.5
100
AcDbCircle
 10
-110.4403991699218
 20
9.5
 30
0.0
 40
5.5
100
AcDbArc
 50
89.99998201391065
 51
179.9999640278213
  0
ARC
  5
41E3
330
41CE
100
AcDbEntity
  8
PROFILE2
 48
0.5
100
AcDbCircle
 10
-110.4403991699218
 20
9.5
 30
0.0
 40
8.0
100
AcDbArc
 50
89.99998201391065
 51
179.9999640278213
  0
ARC
  5
41E4
330
41CE
100
AcDbEntity
  8
PROFILE2
 48
0.5
100
AcDbCircle
 10
8.0
 20
16.0
 30
0.0
 40
12.0
100
AcDbArc
 50
89.99998201391065
 51
160.5287885910291
  0
ARC
  5
41E5
330
41CE
100
AcDbEntity
  8
CENTER1
 48
0.5
100
AcDbCircle
 10
8.0
 20
16.0
 30
0.0
 40
8.0
100
AcDbArc
 50
89.99998201391065
 51
150.0000246646977
  0
ARC
  5
41E6
330
41CE
100
AcDbEntity
  8
PROFILE2
 48
0.5
100
AcDbCircle
 10
30.0
 20
24.0
 30
0.0
 40
4.0
100
AcDbArc
 50
0.0
 51
179.9999640278213
  0
ARC
  5
41E7
330
41CE
100
AcDbEntity
  8
PROFILE2
 48
0.5
100
AcDbCircle
 10
-142.0710754394531
 20
11.0
 30
0.0
 40
4.0
100
AcDbArc
 50
89.99998201391065
 51
270.0000006832453
  0
ARC
  5
41E8
330
41CE
100
AcDbEntity
  8
PROFILE2
 48
0.5
100
AcDbCircle
 10
142.071044921875
 20
11.0
 30
0.0
 40
4.0
100
AcDbArc
 50
270.0000179860893
 51
89.99998201391065
  0
LINE
  5
41E9
330
41CE
100
AcDbEntity
  8
HIDDEN1
 48
0.5
100
AcDbLine
 10
-198.0
 20
0.0
 30
0.0
 11
-198.0
 21
-4.5
 31
0.0
  0
LINE
  5
41EA
330
41CE
100
AcDbEntity
  8
HIDDEN1
 48
0.5
100
AcDbLine
 10
-190.0
 20
-4.5
 30
0.0
 11
-198.0
 21
-4.5
 31
0.0
  0
LINE
  5
41EB
330
41CE
100
AcDbEntity
  8
HIDDEN1
 48
0.5
100
AcDbLine
 10
-190.0
 20
0.0
 30
0.0
 11
-190.0
 21
-4.5
 31
0.0
  0
LINE
  5
41EC
330
41CE
100
AcDbEntity
  8
HIDDEN1
 48
0.5
100
AcDbLine
 10
190.0
 20
-4.5
 30
0.0
 11
198.0
 21
-4.5
 31
0.0
  0
LINE
  5
41ED
330
41CE
100
AcDbEntity
  8
HIDDEN1
 48
0.5
100
AcDbLine
 10
198.0
 20
0.0
 30
0.0
 11
198.0
 21
-4.5
 31
0.0
  0
LINE
  5
41EE
330
41CE
100
AcDbEntity
  8
HIDDEN1
 48
0.5
100
AcDbLine
 10
190.0
 20
0.0
 30
0.0
 11
190.0
 21
-4.5
 31
0.0
  0
LINE
  5
41EF
330
41CE
100
AcDbEntity
  8
PROFILE2
 48
0.5
100
AcDbLine
 10
-36.67001342773438
 20
-15.99163818359375
 30
0.0
 11
-36.67001342773438
 21
-18.4505615234375
 31
0.0
  0
LINE
  5
41F0
330
41CE
100
AcDbEntity
  8
PROFILE2
 48
0.5
100
AcDbLine
 10
-36.67001342773438
 20
-3.5494384765625
 30
0.0
 11
-36.67001342773438
 21
-6.00836181640625
 31
0.0
  0
LINE
  5
41F1
330
41CE
100
AcDbEntity
  8
PROFILE2
 48
0.5
100
AcDbLine
 10
36.67402648925782
 20
-15.98626708984375
 30
0.0
 11
36.67402648925782
 21
-18.44696044921875
 31
0.0
  0
LINE
  5
41F2
330
41CE
100
AcDbEntity
  8
PROFILE2
 48
0.5
100
AcDbLine
 10
36.67402648925782
 20
-3.55303955078125
 30
0.0
 11
36.67402648925782
 21
-6.01373291015625
 31
0.0
  0
LINE
  5
41F3
330
41CE
100
AcDbEntity
  8
PROFILE2
 48
0.5
100
AcDbLine
 10
-26.0
 20
7.0
 30
0.0
 11
26.0
 21
7.0
 31
0.0
  0
LINE
  5
41F4
330
41CE
100
AcDbEntity
  8
CENTER1
 48
0.5
100
AcDbLine
 10
-7.0
 20
11.0
 30
0.0
 11
26.0
 21
11.0
 31
0.0
  0
LINE
  5
41F5
330
41CE
100
AcDbEntity
  8
PROFILE2
 48
0.5
100
AcDbLine
 10
-7.0
 20
15.0
 30
0.0
 11
26.0
 21
15.0
 31
0.0
  0
LINE
  5
41F6
330
41CE
100
AcDbEntity
  8
CENTER1
 48
0.5
100
AcDbLine
 10
-10.70809936523437
 20
17.5
 30
0.0
 11
26.0
 21
17.5
 31
0.0
  0
LINE
  5
41F7
330
41CE
100
AcDbEntity
  8
PROFILE2
 48
0.5
100
AcDbLine
 10
-11.12701416015625
 20
20.0
 30
0.0
 11
26.0
 21
20.0
 31
0.0
  0
LINE
  5
41F8
330
41CE
100
AcDbEntity
  8
PROFILE2
 48
0.5
100
AcDbLine
 10
0.0
 20
42.94374084472656
 30
0.0
 11
0.0
 21
-73.22549438476563
 31
0.0
  0
LINE
  5
41F9
330
41CE
100
AcDbEntity
  8
CENTER1
 48
0.5
100
AcDbLine
 10
-15.0
 20
26.01934814453125
 30
0.0
 11
-15.0
 21
19.0
 31
0.0
  0
LINE
  5
41FA
330
41CE
100
AcDbEntity
  8
PROFILE2
 48
0.5
100
AcDbLine
 10
-34.0
 20
11.0
 30
0.0
 11
-34.0
 21
0.0
 31
0.0
  0
LINE
  5
41FB
330
41CE
100
AcDbEntity
  8
PROFILE2
 48
0.5
100
AcDbLine
 10
-26.0
 20
11.0
 30
0.0
 11
-26.0
 21
0.0
 31
0.0
  0
LINE
  5
41FC
330
41CE
100
AcDbEntity
  8
PROFILE2
 48
0.5
100
AcDbLine
 10
120.9403991699218
 20
7.0
 30
0.0
 11
142.071044921875
 21
7.0
 31
0.0
  0
LINE
  5
41FD
330
41CE
100
AcDbEntity
  8
CENTER1
 48
0.5
100
AcDbLine
 10
120.8327026367187
 20
11.0
 30
0.0
 11
151.3440704345703
 21
11.0
 31
0.0
  0
LINE
  5
41FE
330
41CE
100
AcDbEntity
  8
PROFILE2
 48
0.5
100
AcDbLine
 10
119.3846740722656
 20
15.0
 30
0.0
 11
142.071044921875
 21
15.0
 31
0.0
  0
LINE
  5
41FF
330
41CE
100
AcDbEntity
  8
PROFILE2
 48
0.5
100
AcDbLine
 10
115.9403991699218
 20
9.5
 30
0.0
 11
115.9403991699218
 21
0.0
 31
0.0
  0
LINE
  5
4200
330
41CE
100
AcDbEntity
  8
PROFILE2
 48
0.5
100
AcDbLine
 10
120.9403991699218
 20
9.5
 30
0.0
 11
120.9403991699218
 21
0.0
 31
0.0
  0
LINE
  5
4201
330
41CE
100
AcDbEntity
  8
CENTER1
 48
0.5
100
AcDbLine
 10
118.4403991699219
 20
9.5
 30
0.0
 11
118.4403991699219
 21
0.0
 31
0.0
  0
LINE
  5
4202
330
41CE
100
AcDbEntity
  8
PROFILE2
 48
0.5
100
AcDbLine
 10
34.0
 20
20.0
 30
0.0
 11
110.4403991699218
 21
20.0
 31
0.0
  0
LINE
  5
4203
330
41CE
100
AcDbEntity
  8
CENTER1
 48
0.5
100
AcDbLine
 10
34.0
 20
17.5
 30
0.0
 11
110.4403991699218
 21
17.5
 31
0.0
  0
LINE
  5
4204
330
41CE
100
AcDbEntity
  8
PROFILE2
 48
0.5
100
AcDbLine
 10
34.0
 20
15.0
 30
0.0
 11
110.4403991699218
 21
15.0
 31
0.0
  0
LINE
  5
4205
330
41CE
100
AcDbEntity
  8
CENTER1
 48
0.5
100
AcDbLine
 10
34.0
 20
11.0
 30
0.0
 11
115.7319030761718
 21
11.0
 31
0.0
  0
LINE
  5
4206
330
41CE
100
AcDbEntity
  8
PROFILE2
 48
0.5
100
AcDbLine
 10
34.0
 20
7.0
 30
0.0
 11
115.9403991699218
 21
7.0
 31
0.0
  0
LINE
  5
4207
330
41CE
100
AcDbEntity
  8
PROFILE2
 48
0.5
100
AcDbLine
 10
-115.9403991699218
 20
7.0
 30
0.0
 11
-34.0
 21
7.0
 31
0.0
  0
LINE
  5
4208
330
41CE
100
AcDbEntity
  8
CENTER1
 48
0.5
100
AcDbLine
 10
-115.7319030761718
 20
11.0
 30
0.0
 11
-22.87857055664062
 21
11.0
 31
0.0
  0
LINE
  5
4209
330
41CE
100
AcDbEntity
  8
PROFILE2
 48
0.5
100
AcDbLine
 10
-110.4403991699218
 20
15.0
 30
0.0
 11
-18.313720703125
 21
15.0
 31
0.0
  0
LINE
  5
420A
330
41CE
100
AcDbEntity
  8
PROFILE2
 48
0.5
100
AcDbLine
 10
-115.9403991699218
 20
9.5
 30
0.0
 11
-115.9403991699218
 21
0.0
 31
0.0
  0
LINE
  5
420B
330
41CE
100
AcDbEntity
  8
PROFILE2
 48
0.5
100
AcDbLine
 10
-120.9403991699218
 20
9.5
 30
0.0
 11
-120.9403991699218
 21
0.0
 31
0.0
  0
LINE
  5
420C
330
41CE
100
AcDbEntity
  8
CENTER1
 48
0.5
100
AcDbLine
 10
-118.4403991699219
 20
9.5
 30
0.0
 11
-118.4403991699219
 21
0.0
 31
0.0
  0
LINE
  5
420D
330
41CE
100
AcDbEntity
  8
PROFILE2
 48
0.5
100
AcDbLine
 10
34.0
 20
24.0
 30
0.0
 11
34.0
 21
0.0
 31
0.0
  0
LINE
  5
420E
330
41CE
100
AcDbEntity
  8
PROFILE2
 48
0.5
100
AcDbLine
 10
26.0
 20
24.0
 30
0.0
 11
26.0
 21
0.0
 31
0.0
  0
LINE
  5
420F
330
41CE
100
AcDbEntity
  8
CENTER1
 48
0.5
100
AcDbLine
 10
30.0
 20
30.22630310058594
 30
0.0
 11
30.0
 21
-28.15069580078125
 31
0.0
  0
LINE
  5
4210
330
41CE
100
AcDbEntity
  8
CENTER1
 48
0.5
100
AcDbLine
 10
-30.0
 20
18.734619140625
 30
0.0
 11
-30.0
 21
-27.74380493164063
 31
0.0
  0
LINE
  5
4211
330
41CE
100
AcDbEntity
  8
PROFILE2
 48
0.5
100
AcDbLine
 10
-142.0710754394531
 20
7.0
 30
0.0
 11
-120.9403991699218
 21
7.0
 31
0.0
  0
LINE
  5
4212
330
41CE
100
AcDbEntity
  8
CENTER1
 48
0.5
100
AcDbLine
 10
-157.3633422851562
 20
11.0
 30
0.0
 11
-120.8327026367187
 21
11.0
 31
0.0
  0
LINE
  5
4213
330
41CE
100
AcDbEntity
  8
CENTER1
 48
0.5
100
AcDbLine
 10
-110.4403991699218
 20
17.5
 30
0.0
 11
-18.9058837890625
 21
17.5
 31
0.0
  0
LINE
  5
4214
330
41CE
100
AcDbEntity
  8
CENTER1
 48
0.5
100
AcDbLine
 10
8.0
 20
24.0
 30
0.0
 11
35.99586486816406
 21
24.0
 31
0.0
  0
LINE
  5
4215
330
41CE
100
AcDbEntity
  8
PROFILE2
 48
0.5
100
AcDbLine
 10
-142.0710754394531
 20
15.0
 30
0.0
 11
-119.3846740722656
 21
15.0
 31
0.0
  0
LINE
  5
4216
330
41CE
100
AcDbEntity
  8
PROFILE2
 48
0.5
100
AcDbLine
 10
-110.4403991699218
 20
20.0
 30
0.0
 11
-18.87298583984375
 21
20.0
 31
0.0
  0
LINE
  5
4217
330
41CE
100
AcDbEntity
  8
PROFILE2
 48
0.5
100
AcDbLine
 10
8.0
 20
28.0
 30
0.0
 11
30.0
 21
28.0
 31
0.0
  0
LINE
  5
4218
330
41CE
100
AcDbEntity
  8
PROFILE2
 48
0.5
100
AcDbLine
 10
-147.4142021097905
 20
0.0000493714178447
 30
0.0
 11
-140.4142156677953
 21
7.00003522335828
 31
0.0
  0
LINE
  5
4219
330
41CE
100
AcDbEntity
  8
PROFILE2
 48
0.5
100
AcDbLine
 10
140.4141725094241
 20
6.999970485795528
 30
0.0
 11
147.4141697410131
 21
-0.0000261557379417
 31
0.0
  0
LINE
  5
421A
330
41CE
100
AcDbEntity
  8
CENTER1
 48
0.5
100
AcDbLine
 10
0.0
 20
42.94374084472656
 30
0.0
 11
0.0
 21
-73.22549438476563
 31
0.0
  0
LINE
  5
421B
330
41CE
100
AcDbEntity
  8
PROFILE2
 48
0.5
100
AcDbLine
 10
225.0
 20
0.0
 30
0.0
 11
225.0
 21
-22.0
 31
0.0
  0
LINE
  5
421C
330
41CE
100
AcDbEntity
  8
PROFILE2
 48
0.5
100
AcDbLine
 10
-225.0
 20
0.0
 30
0.0
 11
-225.0
 21
-22.0
 31
0.0
  0
LINE
  5
421D
330
41CE
100
AcDbEntity
  8
PROFILE2
 48
0.5
100
AcDbLine
 10
-225.0
 20
-22.0
 30
0.0
 11
225.0
 21
-22.0
 31
0.0
  0
LINE
  5
421E
330
41CE
100
AcDbEntity
  8
PROFILE2
 48
0.5
100
AcDbLine
 10
-225.0
 20
0.0
 30
0.0
 11
225.0
 21
0.0
 31
0.0
  0
LINE
  5
421F
330
41CE
100
AcDbEntity
  8
CENTER1
 48
0.5
100
AcDbLine
 10
-269.19873046875
 20
-11.0
 30
0.0
 11
265.459716796875
 21
-11.0
 31
0.0
  0
POINT
  5
4220
330
41CE
100
AcDbEntity
  8
NONPLOT
 48
0.5
100
AcDbPoint
 10
0.0
 20
0.0
 30
0.0
  0
ENDBLK
  5
4221
330
41CE
100
AcDbEntity
  8
0
370
    -2
100
AcDbBlockEnd
  0
BLOCK
  5
4223
330
4222
100
AcDbEntity
  8
0
370
    -2
100
AcDbBlockBegin
  2
BW-14_SC_2
 70
     0
 10
0.0
 20
0.0
 30
0.0
  3
BW-14_SC_2
  1

  0
CIRCLE
  5
4224
330
4222
100
AcDbEntity
  8
PROFILE2
 48
0.5
100
AcDbCircle
 10
-105.0
 20
181.8653259277344
 30
0.0
 40
7.5
  0
CIRCLE
  5
4225
330
4222
100
AcDbEntity
  8
PROFILE2
 48
0.5
100
AcDbCircle
 10
-181.8653259277344
 20
105.0
 30
0.0
 40
7.5
  0
CIRCLE
  5
4226
330
4222
100
AcDbEntity
  8
PROFILE2
 48
0.5
100
AcDbCircle
 10
-210.0
 20
0.000030517578125
 30
0.0
 40
7.5
  0
CIRCLE
  5
4227
330
4222
100
AcDbEntity
  8
PROFILE2
 48
0.5
100
AcDbCircle
 10
-181.8653564453125
 20
-104.9999542236328
 30
0.0
 40
7.5
  0
CIRCLE
  5
4228
330
4222
100
AcDbEntity
  8
PROFILE2
 48
0.5
100
AcDbCircle
 10
-105.0000610351562
 20
-181.8652954101562
 30
0.0
 40
7.5
  0
CIRCLE
  5
4229
330
4222
100
AcDbEntity
  8
PROFILE2
 48
0.5
100
AcDbCircle
 10
-0.000091552734375
 20
-210.0
 30
0.0
 40
7.5
  0
CIRCLE
  5
422A
330
4222
100
AcDbEntity
  8
PROFILE2
 48
0.5
100
AcDbCircle
 10
104.9998931884765
 20
-181.8653869628906
 30
0.0
 40
7.5
  0
CIRCLE
  5
422B
330
4222
100
AcDbEntity
  8
PROFILE2
 48
0.5
100
AcDbCircle
 10
181.8652648925781
 20
-105.0001220703125
 30
0.0
 40
7.5
  0
CIRCLE
  5
422C
330
4222
100
AcDbEntity
  8
PROFILE2
 48
0.5
100
AcDbCircle
 10
210.0
 20
0.0
 30
0.0
 40
7.5
  0
CIRCLE
  5
422D
330
4222
100
AcDbEntity
  8
PROFILE2
 48
0.5
100
AcDbCircle
 10
181.8653259277344
 20
105.0
 30
0.0
 40
7.5
  0
CIRCLE
  5
422E
330
4222
100
AcDbEntity
  8
PROFILE2
 48
0.5
100
AcDbCircle
 10
105.0
 20
181.8653564453125
 30
0.0
 40
7.5
  0
CIRCLE
  5
422F
330
4222
100
AcDbEntity
  8
PROFILE2
 48
0.5
100
AcDbCircle
 10
0.0
 20
210.0
 30
0.0
 40
7.5
  0
ARC
  5
4230
330
4222
100
AcDbEntity
  8
PROFILE2
 48
0.5
100
AcDbCircle
 10
118.4403991699219
 20
-118.4403839111328
 30
0.0
 40
2.5
100
AcDbArc
 50
233.8636181065729
 51
45.00006272394161
  0
ARC
  5
4231
330
4222
100
AcDbEntity
  8
PROFILE2
 48
0.5
100
AcDbCircle
 10
-118.4403991699219
 20
-118.4403839111328
 30
0.0
 40
2.5
100
AcDbArc
 50
134.9998910585959
 51
314.9999097279306
  0
ARC
  5
4232
330
4222
100
AcDbEntity
  8
PROFILE2
 48
0.5
100
AcDbCircle
 10
-118.4403991699219
 20
118.4403686523437
 30
0.0
 40
2.5
100
AcDbArc
 50
45.00000125223907
 51
224.99992771402
  0
ARC
  5
4233
330
4222
100
AcDbEntity
  8
PROFILE2
 48
0.5
100
AcDbCircle
 10
118.4403839111328
 20
118.4403991699219
 30
0.0
 40
2.5
100
AcDbArc
 50
315.0002480496656
 51
135.0000003416226
  0
ARC
  5
4234
330
4222
100
AcDbEntity
  8
PROFILE2
 48
0.5
100
AcDbCircle
 10
0.0
 20
10.07107543945312
 30
0.0
 40
4.0
100
AcDbArc
 50
89.99998201391065
 51
270.0000006832453
  0
CIRCLE
  5
4235
330
4222
100
AcDbEntity
  8
PROFILE2
 48
0.5
100
AcDbCircle
 10
0.0
 20
0.0
 30
0.0
 40
190.0
  0
CIRCLE
  5
4236
330
4222
100
AcDbEntity
  8
PROFILE2
 48
0.5
100
AcDbCircle
 10
0.0
 20
0.0
 30
0.0
 40
180.0
  0
ARC
  5
4237
330
4222
100
AcDbEntity
  8
PROFILE2
 48
0.5
100
AcDbCircle
 10
0.0
 20
0.0
 30
0.0
 40
169.4141998291016
100
AcDbArc
 50
225.8455224361116
 51
258.422574135351
  0
ARC
  5
4238
330
4222
100
AcDbEntity
  8
PROFILE2
 48
0.5
100
AcDbCircle
 10
0.0
 20
0.0
 30
0.0
 40
146.0710754394531
100
AcDbArc
 50
225.9806508986511
 51
254.7497901733383
  0
ARC
  5
4239
330
4222
100
AcDbEntity
  8
CENTER1
 48
0.5
100
AcDbCircle
 10
0.0
 20
0.0
 30
0.0
 40
142.0710754394531
100
AcDbArc
 50
226.0082448628979
 51
254.7497901733383
  0
ARC
  5
423A
330
4222
100
AcDbEntity
  8
PROFILE2
 48
0.5
100
AcDbCircle
 10
0.0
 20
0.0
 30
0.0
 40
138.0710754394531
100
AcDbArc
 50
226.0374780725456
 51
254.7497901733383
  0
ARC
  5
423B
330
4222
100
AcDbEntity
  8
PROFILE2
 48
0.5
100
AcDbCircle
 10
0.0
 20
0.0
 30
0.0
 40
132.4142150878906
100
AcDbArc
 50
226.0817923398806
 51
261.7501876574678
  0
ARC
  5
423C
330
4222
100
AcDbEntity
  8
PROFILE2
 48
0.5
100
AcDbCircle
 10
0.0
 20
0.0
 30
0.0
 40
131.0
100
AcDbArc
 50
226.0934856237397
 51
261.6605209340439
  0
ARC
  5
423D
330
4222
100
AcDbEntity
  8
PROFILE2
 48
0.5
100
AcDbCircle
 10
0.0
 20
0.0
 30
0.0
 40
113.0710754394531
100
AcDbArc
 50
226.2669177871447
 51
260.3263391023302
  0
ARC
  5
423E
330
4222
100
AcDbEntity
  8
CENTER1
 48
0.5
100
AcDbCircle
 10
0.0
 20
0.0
 30
0.0
 40
109.0710754394531
100
AcDbArc
 50
226.3133630735008
 51
259.9680000577147
  0
ARC
  5
423F
330
4222
100
AcDbEntity
  8
PROFILE2
 48
0.5
100
AcDbCircle
 10
0.0
 20
0.0
 30
0.0
 40
105.0710754394531
100
AcDbArc
 50
226.3633600582252
 51
262.0953580973635
  0
ARC
  5
4240
330
4222
100
AcDbEntity
  8
PROFILE2
 48
0.5
100
AcDbCircle
 10
0.0
 20
0.0
 30
0.0
 40
99.41421508789062
100
AcDbArc
 50
226.4410056487099
 51
264.2268688920278
  0
ARC
  5
4241
330
4222
100
AcDbEntity
  8
PROFILE2
 48
0.5
100
AcDbCircle
 10
0.0
 20
0.0
 30
0.0
 40
98.0
100
AcDbArc
 50
226.4617694237868
 51
264.1432673765868
  0
ARC
  5
4242
330
4222
100
AcDbEntity
  8
PROFILE2
 48
0.5
100
AcDbCircle
 10
0.0
 20
0.0
 30
0.0
 40
80.07107543945313
100
AcDbArc
 50
226.7891813718405
 51
262.8256419234213
  0
ARC
  5
4243
330
4222
100
AcDbEntity
  8
CENTER1
 48
0.5
100
AcDbCircle
 10
0.0
 20
0.0
 30
0.0
 40
76.07107543945312
100
AcDbArc
 50
226.8832740578466
 51
262.4630954822769
  0
ARC
  5
4244
330
4222
100
AcDbEntity
  8
PROFILE2
 48
0.5
100
AcDbCircle
 10
0.0
 20
0.0
 30
0.0
 40
72.07107543945312
100
AcDbArc
 50
226.9878579144179
 51
265.4761378119797
  0
ARC
  5
4245
330
4222
100
AcDbEntity
  8
PROFILE2
 48
0.5
100
AcDbCircle
 10
0.0
 20
0.0
 30
0.0
 40
66.41421508789061
100
AcDbArc
 50
227.1572466058342
 51
266.5471114738378
  0
ARC
  5
4246
330
4222
100
AcDbEntity
  8
PROFILE2
 48
0.5
100
AcDbCircle
 10
0.0
 20
0.0
 30
0.0
 40
65.0
100
AcDbArc
 50
227.2042383073238
 51
266.4718701099409
  0
ARC
  5
4247
330
4222
100
AcDbEntity
  8
PROFILE2
 48
0.5
100
AcDbCircle
 10
0.0
 20
0.0
 30
0.0
 40
47.07107543945311
100
AcDbArc
 50
228.0444608582621
 51
265.1252300131812
  0
ARC
  5
4248
330
4222
100
AcDbEntity
  8
CENTER1
 48
0.5
100
AcDbCircle
 10
0.0
 20
0.0
 30
0.0
 40
43.07107543945313
100
AcDbArc
 50
228.3275038974675
 51
264.6712683201855
  0
ARC
  5
4249
330
4222
100
AcDbEntity
  8
PROFILE2
 48
0.5
100
AcDbCircle
 10
0.0
 20
0.0
 30
0.0
 40
39.07107543945313
100
AcDbArc
 50
228.6686308653746
 51
270.0000179860893
  0
ARC
  5
424A
330
4222
100
AcDbEntity
  8
PROFILE2
 48
0.5
100
AcDbCircle
 10
0.0
 20
0.0
 30
0.0
 40
33.41421508789063
100
AcDbArc
 50
229.2907791364927
 51
273.4315050251038
  0
ARC
  5
424B
330
4222
100
AcDbEntity
  8
PROFILE2
 48
0.5
100
AcDbCircle
 10
0.0
 20
0.0
 30
0.0
 40
32.00001525878906
100
AcDbArc
 50
229.4808223199591
 51
273.5833537907315
  0
ARC
  5
424C
330
4222
100
AcDbEntity
  8
PROFILE2
 48
0.5
100
AcDbCircle
 10
0.0
 20
0.0
 30
0.0
 40
29.07107543945313
100
AcDbArc
 50
229.9333086920941
 51
255.5642219299707
  0
ARC
  5
424D
330
4222
100
AcDbEntity
  8
PROFILE2
 48
0.5
100
AcDbCircle
 10
0.0
 20
0.0
 30
0.0
 40
32.00001525878906
100
AcDbArc
 50
319.4808009187752
 51
324.3408732491166
  0
ARC
  5
424E
330
4222
100
AcDbEntity
  8
PROFILE2
 48
0.5
100
AcDbCircle
 10
0.0
 20
0.0
 30
0.0
 40
33.41421508789063
100
AcDbArc
 50
319.2907953013492
 51
321.0880298078438
  0
ARC
  5
424F
330
4222
100
AcDbEntity
  8
PROFILE2
 48
0.5
100
AcDbCircle
 10
0.0
 20
0.0
 30
0.0
 40
32.00001525878906
100
AcDbArc
 50
322.3714257679838
 51
324.3408664189274
  0
ARC
  5
4250
330
4222
100
AcDbEntity
  8
PROFILE2
 48
0.5
100
AcDbCircle
 10
0.0
 20
0.0
 30
0.0
 40
29.07107543945313
100
AcDbArc
 50
319.9333146116668
 51
333.4263157509866
  0
ARC
  5
4251
330
4222
100
AcDbEntity
  8
PROFILE2
 48
0.5
100
AcDbCircle
 10
0.0
 20
0.0
 30
0.0
 40
169.4141998291016
100
AcDbArc
 50
315.8455283556843
 51
0.0
  0
ARC
  5
4252
330
4222
100
AcDbEntity
  8
PROFILE2
 48
0.5
100
AcDbCircle
 10
0.0
 20
0.0
 30
0.0
 40
146.0710754394531
100
AcDbArc
 50
315.980663648413
 51
0.0
  0
ARC
  5
4253
330
4222
100
AcDbEntity
  8
CENTER1
 48
0.5
100
AcDbCircle
 10
0.0
 20
0.0
 30
0.0
 40
142.0710754394531
100
AcDbArc
 50
316.0082781032274
 51
0.0
  0
ARC
  5
4254
330
4222
100
AcDbEntity
  8
PROFILE2
 48
0.5
100
AcDbCircle
 10
0.0
 20
0.0
 30
0.0
 40
138.0710754394531
100
AcDbArc
 50
316.0374908223075
 51
0.0
  0
ARC
  5
4255
330
4222
100
AcDbEntity
  8
PROFILE2
 48
0.5
100
AcDbCircle
 10
0.0
 20
0.0
 30
0.0
 40
132.4142150878906
100
AcDbArc
 50
316.0818187500209
 51
0.0
  0
ARC
  5
4256
330
4222
100
AcDbEntity
  8
PROFILE2
 48
0.5
100
AcDbCircle
 10
0.0
 20
0.0
 30
0.0
 40
131.0
100
AcDbArc
 50
316.0934983735016
 51
0.0
  0
ARC
  5
4257
330
4222
100
AcDbEntity
  8
PROFILE2
 48
0.5
100
AcDbCircle
 10
0.0
 20
0.0
 30
0.0
 40
113.0710754394531
100
AcDbArc
 50
316.2669168765282
 51
0.0
  0
ARC
  5
4258
330
4222
100
AcDbEntity
  8
CENTER1
 48
0.5
100
AcDbCircle
 10
0.0
 20
0.0
 30
0.0
 40
109.0710754394531
100
AcDbArc
 50
316.3133826534518
 51
0.0
  0
ARC
  5
4259
330
4222
100
AcDbEntity
  8
PROFILE2
 48
0.5
100
AcDbCircle
 10
0.0
 20
0.0
 30
0.0
 40
105.0710754394531
100
AcDbArc
 50
316.3633967136493
 51
0.0
  0
ARC
  5
425A
330
4222
100
AcDbEntity
  8
PROFILE2
 48
0.5
100
AcDbCircle
 10
0.0
 20
0.0
 30
0.0
 40
99.41421508789062
100
AcDbArc
 50
316.4409876626206
 51
0.0
  0
ARC
  5
425B
330
4222
100
AcDbEntity
  8
PROFILE2
 48
0.5
100
AcDbCircle
 10
0.0
 20
0.0
 30
0.0
 40
98.0
100
AcDbArc
 50
316.4617855886433
 51
0.0
  0
ARC
  5
425C
330
4222
100
AcDbEntity
  8
PROFILE2
 48
0.5
100
AcDbCircle
 10
0.0
 20
0.0
 30
0.0
 40
80.07107543945313
100
AcDbArc
 50
316.789197536697
 51
0.0
  0
ARC
  5
425D
330
4222
100
AcDbEntity
  8
CENTER1
 48
0.5
100
AcDbCircle
 10
0.0
 20
0.0
 30
0.0
 40
76.07107543945312
100
AcDbArc
 50
316.8833038830815
 51
0.0
  0
ARC
  5
425E
330
4222
100
AcDbEntity
  8
PROFILE2
 48
0.5
100
AcDbCircle
 10
0.0
 20
0.0
 30
0.0
 40
72.07107543945312
100
AcDbArc
 50
316.9878740792744
 51
0.0
  0
ARC
  5
425F
330
4222
100
AcDbEntity
  8
PROFILE2
 48
0.5
100
AcDbCircle
 10
0.0
 20
0.0
 30
0.0
 40
66.41421508789061
100
AcDbArc
 50
317.157276431069
 51
0.0
  0
ARC
  5
4260
330
4222
100
AcDbEntity
  8
PROFILE2
 48
0.5
100
AcDbCircle
 10
0.0
 20
0.0
 30
0.0
 40
65.0
100
AcDbArc
 50
317.2042305665183
 51
0.0
  0
ARC
  5
4261
330
4222
100
AcDbEntity
  8
PROFILE2
 48
0.5
100
AcDbCircle
 10
0.0
 20
0.0
 30
0.0
 40
6.071075439453125
100
AcDbArc
 50
159.3173315983223
 51
200.6825964573203
  0
ARC
  5
4262
330
4222
100
AcDbEntity
  8
CENTER1
 48
0.5
100
AcDbCircle
 10
0.0
 20
0.0
 30
0.0
 40
10.07107543945312
100
AcDbArc
 50
149.3731225819173
 51
210.6267508322119
  0
ARC
  5
4263
330
4222
100
AcDbEntity
  8
PROFILE2
 48
0.5
100
AcDbCircle
 10
0.0
 20
0.0
 30
0.0
 40
14.07107543945312
100
AcDbArc
 50
145.2340825864029
 51
214.7658454692396
  0
ARC
  5
4264
330
4222
100
AcDbEntity
  8
PROFILE2
 48
0.5
100
AcDbCircle
 10
0.0
 20
0.0
 30
0.0
 40
29.07107543945313
100
AcDbArc
 50
139.9333093753394
 51
220.0666186803032
  0
ARC
  5
4265
330
4222
100
AcDbEntity
  8
PROFILE2
 48
0.5
100
AcDbCircle
 10
0.0
 20
0.0
 30
0.0
 40
32.00001525878906
100
AcDbArc
 50
139.4808230032045
 51
220.5191050524382
  0
ARC
  5
4266
330
4222
100
AcDbEntity
  8
PROFILE2
 48
0.5
100
AcDbCircle
 10
0.0
 20
0.0
 30
0.0
 40
33.41421508789063
100
AcDbArc
 50
139.290779819738
 51
220.7091482359046
  0
ARC
  5
4267
330
4222
100
AcDbEntity
  8
PROFILE2
 48
0.5
100
AcDbCircle
 10
0.0
 20
0.0
 30
0.0
 40
39.07107543945313
100
AcDbArc
 50
138.6686315486199
 51
221.3312965070227
  0
ARC
  5
4268
330
4222
100
AcDbEntity
  8
CENTER1
 48
0.5
100
AcDbCircle
 10
0.0
 20
0.0
 30
0.0
 40
43.07107543945313
100
AcDbArc
 50
138.3275045807128
 51
221.6724234749298
  0
ARC
  5
4269
330
4222
100
AcDbEntity
  8
PROFILE2
 48
0.5
100
AcDbCircle
 10
0.0
 20
0.0
 30
0.0
 40
47.07107543945311
100
AcDbArc
 50
138.0444615415074
 51
221.9554665141352
  0
ARC
  5
426A
330
4222
100
AcDbEntity
  8
PROFILE2
 48
0.5
100
AcDbCircle
 10
0.0
 20
0.0
 30
0.0
 40
65.0
100
AcDbArc
 50
137.2042389905691
 51
222.7956890650734
  0
ARC
  5
426B
330
4222
100
AcDbEntity
  8
PROFILE2
 48
0.5
100
AcDbCircle
 10
0.0
 20
0.0
 30
0.0
 40
66.41421508789061
100
AcDbArc
 50
137.1572472890795
 51
222.8426807665631
  0
ARC
  5
426C
330
4222
100
AcDbEntity
  8
PROFILE2
 48
0.5
100
AcDbCircle
 10
0.0
 20
0.0
 30
0.0
 40
72.07107543945312
100
AcDbArc
 50
136.9878585976632
 51
223.0120694579795
  0
ARC
  5
426D
330
4222
100
AcDbEntity
  8
CENTER1
 48
0.5
100
AcDbCircle
 10
0.0
 20
0.0
 30
0.0
 40
76.07107543945312
100
AcDbArc
 50
136.8833293826053
 51
223.1166533145507
  0
ARC
  5
426E
330
4222
100
AcDbEntity
  8
PROFILE2
 48
0.5
100
AcDbCircle
 10
0.0
 20
0.0
 30
0.0
 40
80.07107543945313
100
AcDbArc
 50
136.7891820550858
 51
223.2107460005568
  0
ARC
  5
426F
330
4222
100
AcDbEntity
  8
PROFILE2
 48
0.5
100
AcDbCircle
 10
0.0
 20
0.0
 30
0.0
 40
98.0
100
AcDbArc
 50
136.4617701070321
 51
223.5381579486105
  0
ARC
  5
4270
330
4222
100
AcDbEntity
  8
PROFILE2
 48
0.5
100
AcDbCircle
 10
0.0
 20
0.0
 30
0.0
 40
99.41421508789062
100
AcDbArc
 50
136.4410063319552
 51
223.5589217236873
  0
ARC
  5
4271
330
4222
100
AcDbEntity
  8
PROFILE2
 48
0.5
100
AcDbCircle
 10
0.0
 20
0.0
 30
0.0
 40
105.0710754394531
100
AcDbArc
 50
136.3634153829839
 51
223.6365673141721
  0
ARC
  5
4272
330
4222
100
AcDbEntity
  8
CENTER1
 48
0.5
100
AcDbCircle
 10
0.0
 20
0.0
 30
0.0
 40
109.0710754394531
100
AcDbArc
 50
136.313363756746
 51
223.6865642988965
  0
ARC
  5
4273
330
4222
100
AcDbEntity
  8
PROFILE2
 48
0.5
100
AcDbCircle
 10
0.0
 20
0.0
 30
0.0
 40
113.0710754394531
100
AcDbArc
 50
136.26691847039
 51
223.7330095852526
  0
ARC
  5
4274
330
4222
100
AcDbEntity
  8
PROFILE2
 48
0.5
100
AcDbCircle
 10
0.0
 20
0.0
 30
0.0
 40
131.0
100
AcDbArc
 50
136.093486306985
 51
223.9064417486576
  0
ARC
  5
4275
330
4222
100
AcDbEntity
  8
PROFILE2
 48
0.5
100
AcDbCircle
 10
0.0
 20
0.0
 30
0.0
 40
132.4142150878906
100
AcDbArc
 50
136.0818476646393
 51
223.9181350325166
  0
ARC
  5
4276
330
4222
100
AcDbEntity
  8
PROFILE2
 48
0.5
100
AcDbCircle
 10
0.0
 20
0.0
 30
0.0
 40
138.0710754394531
100
AcDbArc
 50
136.0374787557909
 51
223.9624492998517
  0
ARC
  5
4277
330
4222
100
AcDbEntity
  8
CENTER1
 48
0.5
100
AcDbCircle
 10
0.0
 20
0.0
 30
0.0
 40
142.0710754394531
100
AcDbArc
 50
136.0083001876566
 51
223.9916825094994
  0
ARC
  5
4278
330
4222
100
AcDbEntity
  8
PROFILE2
 48
0.5
100
AcDbCircle
 10
0.0
 20
0.0
 30
0.0
 40
146.0710754394531
100
AcDbArc
 50
135.9806515818964
 51
224.0192764737462
  0
ARC
  5
4279
330
4222
100
AcDbEntity
  8
PROFILE2
 48
0.5
100
AcDbCircle
 10
0.0
 20
0.0
 30
0.0
 40
169.4141998291016
100
AcDbArc
 50
135.8455231193569
 51
224.1544049362858
  0
ARC
  5
427A
330
4222
100
AcDbEntity
  8
PROFILE2
 48
0.5
100
AcDbCircle
 10
0.0
 20
0.0
 30
0.0
 40
29.07107543945313
100
AcDbArc
 50
49.93331370105047
 51
130.0666913079058
  0
ARC
  5
427B
330
4222
100
AcDbEntity
  8
PROFILE2
 48
0.5
100
AcDbCircle
 10
0.0
 20
0.0
 30
0.0
 40
32.00001525878906
100
AcDbArc
 50
49.48080342325336
 51
130.5191776800408
  0
ARC
  5
427C
330
4222
100
AcDbEntity
  8
PROFILE2
 48
0.5
100
AcDbCircle
 10
0.0
 20
0.0
 30
0.0
 40
33.41421508789063
100
AcDbArc
 50
49.29079439073279
 51
130.7092208635073
  0
ARC
  5
427D
330
4222
100
AcDbEntity
  8
PROFILE2
 48
0.5
100
AcDbCircle
 10
0.0
 20
0.0
 30
0.0
 40
39.07107543945313
100
AcDbArc
 50
48.6686358743309
 51
131.3313691346254
  0
ARC
  5
427E
330
4222
100
AcDbEntity
  8
CENTER1
 48
0.5
100
AcDbCircle
 10
0.0
 20
0.0
 30
0.0
 40
43.07107543945313
100
AcDbArc
 50
48.32752598189673
 51
131.6724961025325
  0
ARC
  5
427F
330
4222
100
AcDbEntity
  8
PROFILE2
 48
0.5
100
AcDbCircle
 10
0.0
 20
0.0
 30
0.0
 40
47.07107543945311
100
AcDbArc
 50
48.04448294269139
 51
131.9555391417378
  0
ARC
  5
4280
330
4222
100
AcDbEntity
  8
PROFILE2
 48
0.5
100
AcDbCircle
 10
0.0
 20
0.0
 30
0.0
 40
65.0
100
AcDbArc
 50
47.20422965590183
 51
132.7957616926761
  0
ARC
  5
4281
330
4222
100
AcDbEntity
  8
PROFILE2
 48
0.5
100
AcDbCircle
 10
0.0
 20
0.0
 30
0.0
 40
66.41421508789061
100
AcDbArc
 50
47.15727210535799
 51
132.8427533941658
  0
ARC
  5
4282
330
4222
100
AcDbEntity
  8
PROFILE2
 48
0.5
100
AcDbCircle
 10
0.0
 20
0.0
 30
0.0
 40
72.07107543945312
100
AcDbArc
 50
46.98787658375251
 51
133.0121420855821
  0
ARC
  5
4283
330
4222
100
AcDbEntity
  8
CENTER1
 48
0.5
100
AcDbCircle
 10
0.0
 20
0.0
 30
0.0
 40
76.07107543945312
100
AcDbArc
 50
46.88330980265421
 51
133.1166713006399
  0
ARC
  5
4284
330
4222
100
AcDbEntity
  8
PROFILE2
 48
0.5
100
AcDbCircle
 10
0.0
 20
0.0
 30
0.0
 40
80.07107543945313
100
AcDbArc
 50
46.78919662608059
 51
133.2108186281594
  0
ARC
  5
4285
330
4222
100
AcDbEntity
  8
PROFILE2
 48
0.5
100
AcDbCircle
 10
0.0
 20
0.0
 30
0.0
 40
98.0
100
AcDbArc
 50
46.46178467802687
 51
133.5382305762132
  0
ARC
  5
4286
330
4222
100
AcDbEntity
  8
PROFILE2
 48
0.5
100
AcDbCircle
 10
0.0
 20
0.0
 30
0.0
 40
99.41421508789062
100
AcDbArc
 50
46.44098675200417
 51
133.55899435129
  0
ARC
  5
4287
330
4222
100
AcDbEntity
  8
PROFILE2
 48
0.5
100
AcDbCircle
 10
0.0
 20
0.0
 30
0.0
 40
105.0710754394531
100
AcDbArc
 50
46.36339238793826
 51
133.6365853002614
  0
ARC
  5
4288
330
4222
100
AcDbEntity
  8
CENTER1
 48
0.5
100
AcDbCircle
 10
0.0
 20
0.0
 30
0.0
 40
109.0710754394531
100
AcDbArc
 50
46.31338515792999
 51
133.6866369264992
  0
ARC
  5
4289
330
4222
100
AcDbEntity
  8
PROFILE2
 48
0.5
100
AcDbCircle
 10
0.0
 20
0.0
 30
0.0
 40
113.0710754394531
100
AcDbArc
 50
46.26691255081722
 51
133.7330822128553
  0
ARC
  5
428A
330
4222
100
AcDbEntity
  8
PROFILE2
 48
0.5
100
AcDbCircle
 10
0.0
 20
0.0
 30
0.0
 40
131.0
100
AcDbArc
 50
46.09349746288519
 51
133.9065143762603
  0
ARC
  5
428B
330
4222
100
AcDbEntity
  8
PROFILE2
 48
0.5
100
AcDbCircle
 10
0.0
 20
0.0
 30
0.0
 40
132.4142150878906
100
AcDbArc
 50
46.08181783940446
 51
133.9182076601193
  0
ARC
  5
428C
330
4222
100
AcDbEntity
  8
PROFILE2
 48
0.5
100
AcDbCircle
 10
0.0
 20
0.0
 30
0.0
 40
138.0710754394531
100
AcDbArc
 50
46.03748991169109
 51
133.9625219274544
  0
ARC
  5
428D
330
4222
100
AcDbEntity
  8
CENTER1
 48
0.5
100
AcDbCircle
 10
0.0
 20
0.0
 30
0.0
 40
142.0710754394531
100
AcDbArc
 50
46.00827719261094
 51
133.9917551371021
  0
ARC
  5
428E
330
4222
100
AcDbEntity
  8
PROFILE2
 48
0.5
100
AcDbCircle
 10
0.0
 20
0.0
 30
0.0
 40
146.0710754394531
100
AcDbArc
 50
45.98066273779659
 51
134.0193491013489
  0
ARC
  5
428F
330
4222
100
AcDbEntity
  8
PROFILE2
 48
0.5
100
AcDbCircle
 10
0.0
 20
0.0
 30
0.0
 40
169.4141998291016
100
AcDbArc
 50
45.84552744506789
 51
134.1544775638884
  0
ARC
  5
4290
330
4222
100
AcDbEntity
  8
PROFILE2
 48
0.5
100
AcDbCircle
 10
0.0
 20
0.0
 30
0.0
 40
169.4141998291016
100
AcDbArc
 50
281.5774071953144
 51
314.1544691398375
  0
ARC
  5
4291
330
4222
100
AcDbEntity
  8
PROFILE2
 48
0.5
100
AcDbCircle
 10
0.0
 20
0.0
 30
0.0
 40
169.4141998291016
100
AcDbArc
 50
261.1719165215778
 51
278.8281194506009
  0
ARC
  5
4292
330
4222
100
AcDbEntity
  8
PROFILE2
 48
0.5
100
AcDbCircle
 10
0.0
 20
0.0
 30
0.0
 40
169.4141998291016
100
AcDbArc
 50
0.0
 51
44.15447164431569
  0
CIRCLE
  5
4293
330
4222
100
AcDbEntity
  8
CENTER1
 48
0.5
100
AcDbCircle
 10
0.0
 20
0.0
 30
0.0
 40
210.0
  0
CIRCLE
  5
4294
330
4222
100
AcDbEntity
  8
PROFILE2
 48
0.5
100
AcDbCircle
 10
0.0
 20
0.0
 30
0.0
 40
198.0
  0
ARC
  5
4295
330
4222
100
AcDbEntity
  8
PROFILE2
 48
0.5
100
AcDbCircle
 10
-40.0
 20
-146.7160949707031
 30
0.0
 40
6.0
100
AcDbArc
 50
0.0
 51
74.74969955964628
  0
ARC
  5
4296
330
4222
100
AcDbEntity
  8
PROFILE2
 48
0.5
100
AcDbCircle
 10
-40.0
 20
-146.7160949707031
 30
0.0
 40
14.0
100
AcDbArc
 50
0.0
 51
74.74975420115962
  0
ARC
  5
4297
330
4222
100
AcDbEntity
  8
PROFILE2
 48
0.5
100
AcDbCircle
 10
-40.0
 20
-146.7160949707031
 30
0.0
 40
10.0
100
AcDbArc
 50
0.0
 51
74.74980884267299
  0
ARC
  5
4298
330
4222
100
AcDbEntity
  8
PROFILE2
 48
0.5
100
AcDbCircle
 10
0.0
 20
0.0
 30
0.0
 40
146.0710754394531
100
AcDbArc
 50
267.8303674150998
 51
280.2530608360056
  0
ARC
  5
4299
330
4222
100
AcDbEntity
  8
CENTER1
 48
0.5
100
AcDbCircle
 10
0.0
 20
0.0
 30
0.0
 40
142.0710754394531
100
AcDbArc
 50
267.8303674150998
 51
280.5449558003752
  0
ARC
  5
429A
330
4222
100
AcDbEntity
  8
PROFILE2
 48
0.5
100
AcDbCircle
 10
0.0
 20
0.0
 30
0.0
 40
138.0710754394531
100
AcDbArc
 50
267.8303674150998
 51
280.8541174829667
  0
ARC
  5
429B
330
4222
100
AcDbEntity
  8
PROFILE2
 48
0.5
100
AcDbCircle
 10
0.0
 20
0.0
 30
0.0
 40
146.0710754394531
100
AcDbArc
 50
283.4598619720832
 51
314.0193372622034
  0
ARC
  5
429C
330
4222
100
AcDbEntity
  8
CENTER1
 48
0.5
100
AcDbCircle
 10
0.0
 20
0.0
 30
0.0
 40
142.0710754394531
100
AcDbArc
 50
283.8462321130526
 51
313.9917296375782
  0
ARC
  5
429D
330
4222
100
AcDbEntity
  8
PROFILE2
 48
0.5
100
AcDbCircle
 10
0.0
 20
0.0
 30
0.0
 40
138.0710754394531
100
AcDbArc
 50
284.2557156141731
 51
313.9625100883089
  0
ARC
  5
429E
330
4222
100
AcDbEntity
  8
PROFILE2
 48
0.5
100
AcDbCircle
 10
0.0
 20
0.0
 30
0.0
 40
132.4142150878906
100
AcDbArc
 50
284.8785195834516
 51
313.9181889907847
  0
ARC
  5
429F
330
4222
100
AcDbEntity
  8
PROFILE2
 48
0.5
100
AcDbCircle
 10
0.0
 20
0.0
 30
0.0
 40
131.0
100
AcDbArc
 50
285.0429358971521
 51
313.9065025371148
  0
ARC
  5
42A0
330
4222
100
AcDbEntity
  8
PROFILE2
 48
0.5
100
AcDbCircle
 10
0.0
 20
0.0
 30
0.0
 40
132.4142150878906
100
AcDbArc
 50
265.2347862474682
 51
281.3238159318101
  0
ARC
  5
42A1
330
4222
100
AcDbEntity
  8
PROFILE2
 48
0.5
100
AcDbCircle
 10
0.0
 20
0.0
 30
0.0
 40
131.0
100
AcDbArc
 50
265.1832593003696
 51
281.4477428841109
  0
ARC
  5
42A2
330
4222
100
AcDbEntity
  8
PROFILE2
 48
0.5
100
AcDbCircle
 10
-5.0
 20
-131.9763946533203
 30
0.0
 40
14.0
100
AcDbArc
 50
179.9999813306653
 51
267.8303127735864
  0
ARC
  5
42A3
330
4222
100
AcDbEntity
  8
PROFILE2
 48
0.5
100
AcDbCircle
 10
-5.0
 20
-131.9763946533203
 30
0.0
 40
6.0
100
AcDbArc
 50
179.9999813306653
 51
267.8304220566131
  0
ARC
  5
42A4
330
4222
100
AcDbEntity
  8
CENTER1
 48
0.5
100
AcDbCircle
 10
-5.0
 20
-131.9763946533203
 30
0.0
 40
10.0
100
AcDbArc
 50
179.9999813306653
 51
267.8304220566131
  0
ARC
  5
42A5
330
4222
100
AcDbEntity
  8
PROFILE2
 48
0.5
100
AcDbCircle
 10
0.0
 20
0.0
 30
0.0
 40
138.0710754394531
100
AcDbArc
 50
0.0
 51
43.96250917769249
  0
ARC
  5
42A6
330
4222
100
AcDbEntity
  8
PROFILE2
 48
0.5
100
AcDbCircle
 10
0.0
 20
0.0
 30
0.0
 40
146.0710754394531
100
AcDbArc
 50
0.0
 51
44.01933635158699
  0
ARC
  5
42A7
330
4222
100
AcDbEntity
  8
PROFILE2
 48
0.5
100
AcDbCircle
 10
-15.0
 20
-108.0347137451172
 30
0.0
 40
4.0
100
AcDbArc
 50
0.0
 51
179.9999640278213
  0
ARC
  5
42A8
330
4222
100
AcDbEntity
  8
PROFILE2
 48
0.5
100
AcDbCircle
 10
0.0
 20
0.0
 30
0.0
 40
132.4142150878906
100
AcDbArc
 50
0.0
 51
43.91818808016828
  0
ARC
  5
42A9
330
4222
100
AcDbEntity
  8
PROFILE2
 48
0.5
100
AcDbCircle
 10
0.0
 20
0.0
 30
0.0
 40
131.0
100
AcDbArc
 50
0.0
 51
43.90650162649838
  0
ARC
  5
42AA
330
4222
100
AcDbEntity
  8
PROFILE2
 48
0.5
100
AcDbCircle
 10
0.0
 20
0.0
 30
0.0
 40
113.0710754394531
100
AcDbArc
 50
272.3139767938629
 51
283.2938064129819
  0
ARC
  5
42AB
330
4222
100
AcDbEntity
  8
CENTER1
 48
0.5
100
AcDbCircle
 10
0.0
 20
0.0
 30
0.0
 40
109.0710754394531
100
AcDbArc
 50
272.3139767938629
 51
283.790770976992
  0
ARC
  5
42AC
330
4222
100
AcDbEntity
  8
PROFILE2
 48
0.5
100
AcDbCircle
 10
0.0
 20
0.0
 30
0.0
 40
105.0710754394531
100
AcDbArc
 50
272.3139767938629
 51
284.3268042230546
  0
ARC
  5
42AD
330
4222
100
AcDbEntity
  8
PROFILE2
 48
0.5
100
AcDbCircle
 10
0.0
 20
0.0
 30
0.0
 40
99.41421508789062
100
AcDbArc
 50
268.8472459787313
 51
285.1610162075234
  0
ARC
  5
42AE
330
4222
100
AcDbEntity
  8
PROFILE2
 48
0.5
100
AcDbCircle
 10
0.0
 20
0.0
 30
0.0
 40
98.0
100
AcDbArc
 50
268.8306349586698
 51
285.3851556953265
  0
ARC
  5
42AF
330
4222
100
AcDbEntity
  8
PROFILE2
 48
0.5
100
AcDbCircle
 10
0.0
 20
0.0
 30
0.0
 40
113.0710754394531
100
AcDbArc
 50
287.4993997717689
 51
313.7330908642774
  0
ARC
  5
42B0
330
4222
100
AcDbEntity
  8
CENTER1
 48
0.5
100
AcDbCircle
 10
0.0
 20
0.0
 30
0.0
 40
109.0710754394531
100
AcDbArc
 50
288.1631302345541
 51
313.6866182571647
  0
ARC
  5
42B1
330
4222
100
AcDbEntity
  8
PROFILE2
 48
0.5
100
AcDbCircle
 10
0.0
 20
0.0
 30
0.0
 40
105.0710754394531
100
AcDbArc
 50
288.880245455892
 51
313.6366110271563
  0
ARC
  5
42B2
330
4222
100
AcDbEntity
  8
PROFILE2
 48
0.5
100
AcDbCircle
 10
0.0
 20
0.0
 30
0.0
 40
99.41421508789062
100
AcDbArc
 50
289.9990304419402
 51
313.5590166630903
  0
ARC
  5
42B3
330
4222
100
AcDbEntity
  8
PROFILE2
 48
0.5
100
AcDbCircle
 10
0.0
 20
0.0
 30
0.0
 40
98.0
100
AcDbArc
 50
290.300214463581
 51
313.5382187370677
  0
ARC
  5
42B4
330
4222
100
AcDbEntity
  8
PROFILE2
 48
0.5
100
AcDbCircle
 10
4.0
 20
-98.99029541015623
 30
0.0
 40
14.0
100
AcDbArc
 50
179.9999813306653
 51
272.3139767938629
  0
ARC
  5
42B5
330
4222
100
AcDbEntity
  8
PROFILE2
 48
0.5
100
AcDbCircle
 10
4.0
 20
-98.99029541015623
 30
0.0
 40
6.0
100
AcDbArc
 50
179.9999813306653
 51
272.3139767938629
  0
ARC
  5
42B6
330
4222
100
AcDbEntity
  8
PROFILE2
 48
0.5
100
AcDbCircle
 10
0.0
 20
0.0
 30
0.0
 40
113.0710754394531
100
AcDbArc
 50
0.0
 51
43.73309336875551
  0
ARC
  5
42B7
330
4222
100
AcDbEntity
  8
PROFILE2
 48
0.5
100
AcDbCircle
 10
0.0
 20
0.0
 30
0.0
 40
105.0710754394531
100
AcDbArc
 50
0.0
 51
43.6366135316345
  0
ARC
  5
42B8
330
4222
100
AcDbEntity
  8
PROFILE2
 48
0.5
100
AcDbCircle
 10
4.0
 20
-98.99029541015623
 30
0.0
 40
10.0
100
AcDbArc
 50
179.9999813306653
 51
272.3139767938629
  0
ARC
  5
42B9
330
4222
100
AcDbEntity
  8
PROFILE2
 48
0.5
100
AcDbCircle
 10
10.0
 20
-65.30992126464844
 30
0.0
 40
14.0
100
AcDbArc
 50
179.9999813306653
 51
278.7052853285674
  0
ARC
  5
42BA
330
4222
100
AcDbEntity
  8
PROFILE2
 48
0.5
100
AcDbCircle
 10
10.0
 20
-65.30992126464844
 30
0.0
 40
6.0
100
AcDbArc
 50
179.9999813306653
 51
278.7052853285674
  0
ARC
  5
42BB
330
4222
100
AcDbEntity
  8
CENTER1
 48
0.5
100
AcDbCircle
 10
10.0
 20
-65.30992126464844
 30
0.0
 40
10.0
100
AcDbArc
 50
179.9999813306653
 51
278.7052853285674
  0
ARC
  5
42BC
330
4222
100
AcDbEntity
  8
PROFILE2
 48
0.5
100
AcDbCircle
 10
-6.0
 20
-75.83407592773437
 30
0.0
 40
4.0
100
AcDbArc
 50
0.0
 51
179.9999640278213
  0
ARC
  5
42BD
330
4222
100
AcDbEntity
  8
PROFILE2
 48
0.5
100
AcDbCircle
 10
0.0
 20
0.0
 30
0.0
 40
99.41421508789062
100
AcDbArc
 50
0.0
 51
43.55901916756857
  0
ARC
  5
42BE
330
4222
100
AcDbEntity
  8
PROFILE2
 48
0.5
100
AcDbCircle
 10
0.0
 20
0.0
 30
0.0
 40
98.0
100
AcDbArc
 50
0.0
 51
43.53821441135671
  0
ARC
  5
42BF
330
4222
100
AcDbEntity
  8
PROFILE2
 48
0.5
100
AcDbCircle
 10
0.0
 20
0.0
 30
0.0
 40
80.07107543945313
100
AcDbArc
 50
278.7053399700807
 51
288.9481102154853
  0
ARC
  5
42C0
330
4222
100
AcDbEntity
  8
CENTER1
 48
0.5
100
AcDbCircle
 10
0.0
 20
0.0
 30
0.0
 40
76.07107543945312
100
AcDbArc
 50
278.7053399700807
 51
289.9856979126803
  0
ARC
  5
42C1
330
4222
100
AcDbEntity
  8
PROFILE2
 48
0.5
100
AcDbCircle
 10
0.0
 20
0.0
 30
0.0
 40
72.07107543945312
100
AcDbArc
 50
278.7053399700807
 51
291.1465568640156
  0
ARC
  5
42C2
330
4222
100
AcDbEntity
  8
PROFILE2
 48
0.5
100
AcDbCircle
 10
0.0
 20
0.0
 30
0.0
 40
66.41421508789061
100
AcDbArc
 50
273.4529244983409
 51
293.0467701326265
  0
ARC
  5
42C3
330
4222
100
AcDbEntity
  8
PROFILE2
 48
0.5
100
AcDbCircle
 10
0.0
 20
0.0
 30
0.0
 40
65.0
100
AcDbArc
 50
273.5281658622378
 51
293.5782134915669
  0
ARC
  5
42C4
330
4222
100
AcDbEntity
  8
PROFILE2
 48
0.5
100
AcDbCircle
 10
0.0
 20
0.0
 30
0.0
 40
66.41421508789061
100
AcDbArc
 50
300.7930789156347
 51
312.8427347248312
  0
ARC
  5
42C5
330
4222
100
AcDbEntity
  8
PROFILE2
 48
0.5
100
AcDbCircle
 10
0.0
 20
0.0
 30
0.0
 40
65.0
100
AcDbArc
 50
301.5388809314868
 51
312.7957737591927
  0
ARC
  5
42C6
330
4222
100
AcDbEntity
  8
PROFILE2
 48
0.5
100
AcDbCircle
 10
0.0
 20
0.0
 30
0.0
 40
80.07107543945313
100
AcDbArc
 50
295.1268086217055
 51
313.2108033739194
  0
ARC
  5
42C7
330
4222
100
AcDbEntity
  8
CENTER1
 48
0.5
100
AcDbCircle
 10
0.0
 20
0.0
 30
0.0
 40
76.07107543945312
100
AcDbArc
 50
296.5481983087419
 51
313.1166901973458
  0
ARC
  5
42C8
330
4222
100
AcDbEntity
  8
PROFILE2
 48
0.5
100
AcDbCircle
 10
0.0
 20
0.0
 30
0.0
 40
72.07107543945312
100
AcDbArc
 50
298.1483750274925
 51
313.0121268313421
  0
ARC
  5
42C9
330
4222
100
AcDbEntity
  8
PROFILE2
 48
0.5
100
AcDbCircle
 10
0.0
 20
0.0
 30
0.0
 40
72.07107543945312
100
AcDbArc
 50
0.0
 51
43.0121327509148
  0
ARC
  5
42CA
330
4222
100
AcDbEntity
  8
PROFILE2
 48
0.5
100
AcDbCircle
 10
0.0
 20
0.0
 30
0.0
 40
80.07107543945313
100
AcDbArc
 50
0.0
 51
43.21080246330296
  0
ARC
  5
42CB
330
4222
100
AcDbEntity
  8
PROFILE2
 48
0.5
100
AcDbCircle
 10
0.0
 20
-43.07107543945313
 30
0.0
 40
4.0
100
AcDbArc
 50
0.0
 51
179.9999640278213
  0
ARC
  5
42CC
330
4222
100
AcDbEntity
  8
PROFILE2
 48
0.5
100
AcDbCircle
 10
0.0
 20
0.0
 30
0.0
 40
66.41421508789061
100
AcDbArc
 50
0.0
 51
42.84273722930932
  0
ARC
  5
42CD
330
4222
100
AcDbEntity
  8
PROFILE2
 48
0.5
100
AcDbCircle
 10
0.0
 20
0.0
 30
0.0
 40
65.0
100
AcDbArc
 50
0.0
 51
42.79576943348174
  0
ARC
  5
42CE
330
4222
100
AcDbEntity
  8
PROFILE2
 48
0.5
100
AcDbCircle
 10
0.0
 20
0.0
 30
0.0
 40
47.07107543945311
100
AcDbArc
 50
316.2456920636824
 51
0.0
  0
ARC
  5
42CF
330
4222
100
AcDbEntity
  8
CENTER1
 48
0.5
100
AcDbCircle
 10
0.0
 20
0.0
 30
0.0
 40
43.07107543945313
100
AcDbArc
 50
322.1288174486649
 51
0.0
  0
ARC
  5
42D0
330
4222
100
AcDbEntity
  8
PROFILE2
 48
0.5
100
AcDbCircle
 10
0.0
 20
0.0
 30
0.0
 40
39.07107543945313
100
AcDbArc
 50
330.4829276904397
 51
0.0
  0
ARC
  5
42D1
330
4222
100
AcDbEntity
  8
PROFILE2
 48
0.5
100
AcDbCircle
 10
0.0
 20
0.0
 30
0.0
 40
47.07107543945311
100
AcDbArc
 50
293.5275061671687
 51
303.5288121499404
  0
ARC
  5
42D2
330
4222
100
AcDbEntity
  8
CENTER1
 48
0.5
100
AcDbCircle
 10
0.0
 20
0.0
 30
0.0
 40
43.07107543945313
100
AcDbArc
 50
293.527560808682
 51
307.1320033144997
  0
ARC
  5
42D3
330
4222
100
AcDbEntity
  8
PROFILE2
 48
0.5
100
AcDbCircle
 10
0.0
 20
0.0
 30
0.0
 40
39.07107543945313
100
AcDbArc
 50
293.527560808682
 51
311.717160530748
  0
ARC
  5
42D4
330
4222
100
AcDbEntity
  8
PROFILE2
 48
0.5
100
AcDbCircle
 10
14.0
 20
-32.1555633544922
 30
0.0
 40
12.0
100
AcDbArc
 50
179.9999813306653
 51
293.5275061671687
  0
ARC
  5
42D5
330
4222
100
AcDbEntity
  8
PROFILE2
 48
0.5
100
AcDbCircle
 10
14.0
 20
-32.1555633544922
 30
0.0
 40
4.0
100
AcDbArc
 50
179.9999813306653
 51
293.5275061671687
  0
ARC
  5
42D6
330
4222
100
AcDbEntity
  8
PROFILE2
 48
0.5
100
AcDbCircle
 10
0.0
 20
0.0
 30
0.0
 40
39.07107543945313
100
AcDbArc
 50
0.0
 51
41.33138029052559
  0
ARC
  5
42D7
330
4222
100
AcDbEntity
  8
PROFILE2
 48
0.5
100
AcDbCircle
 10
0.0
 20
0.0
 30
0.0
 40
47.07107543945311
100
AcDbArc
 50
0.0
 51
41.9555332221651
  0
ARC
  5
42D8
330
4222
100
AcDbEntity
  8
CENTER1
 48
0.5
100
AcDbCircle
 10
14.0
 20
-32.1555633544922
 30
0.0
 40
8.0
100
AcDbArc
 50
179.9999813306653
 51
293.5275061671687
  0
ARC
  5
42D9
330
4222
100
AcDbEntity
  8
PROFILE2
 48
0.5
100
AcDbCircle
 10
0.0
 20
0.0
 30
0.0
 40
33.41421508789063
100
AcDbArc
 50
287.413995086387
 51
310.7092056092672
  0
ARC
  5
42DA
330
4222
100
AcDbEntity
  8
PROFILE2
 48
0.5
100
AcDbCircle
 10
0.0
 20
0.0
 30
0.0
 40
32.00001525878906
100
AcDbArc
 50
288.2099580115037
 51
310.5191965767466
  0
ARC
  5
42DB
330
4222
100
AcDbEntity
  8
PROFILE2
 48
0.5
100
AcDbCircle
 10
0.0
 20
0.0
 30
0.0
 40
32.00001525878906
100
AcDbArc
 50
16.59158134309315
 51
40.5192195717923
  0
ARC
  5
42DC
330
4222
100
AcDbEntity
  8
PROFILE2
 48
0.5
100
AcDbCircle
 10
-4.754302978515625
 20
-18.46896362304687
 30
0.0
 40
10.0
100
AcDbArc
 50
255.5642219299707
 51
320.189392064029
  0
ARC
  5
42DD
330
4222
100
AcDbEntity
  8
PROFILE2
 48
0.5
100
AcDbCircle
 10
6.0
 20
-27.43247985839844
 30
0.0
 40
4.0
100
AcDbArc
 50
0.0
 51
179.9999640278213
  0
ARC
  5
42DE
330
4222
100
AcDbEntity
  8
PROFILE2
 48
0.5
100
AcDbCircle
 10
16.26338195800781
 20
-16.3638916015625
 30
0.0
 40
14.0
100
AcDbArc
 50
242.3698264158801
 51
252.0679846976245
  0
ARC
  5
42DF
330
4222
100
AcDbEntity
  8
PROFILE2
 48
0.5
100
AcDbCircle
 10
16.26338195800781
 20
-16.3638916015625
 30
0.0
 40
6.0
100
AcDbArc
 50
224.9999996583774
 51
291.1200557300361
  0
ARC
  5
42E0
330
4222
100
AcDbEntity
  8
PROFILE2
 48
0.5
100
AcDbCircle
 10
0.0
 20
0.0
 30
0.0
 40
29.07107543945313
100
AcDbArc
 50
25.75383615236921
 51
40.06670929399518
  0
ARC
  5
42E1
330
4222
100
AcDbEntity
  8
PROFILE2
 48
0.5
100
AcDbCircle
 10
0.0
 20
0.0
 30
0.0
 40
33.41421508789063
100
AcDbArc
 50
9.095206257288623
 51
40.70920469865078
  0
ARC
  5
42E2
330
4222
100
AcDbEntity
  8
CENTER1
 48
0.5
100
AcDbCircle
 10
16.26338195800781
 20
-16.3638916015625
 30
0.0
 40
10.0
100
AcDbArc
 50
224.9999996583774
 51
280.9262989221154
  0
ARC
  5
42E3
330
4222
100
AcDbEntity
  8
PROFILE2
 48
0.5
100
AcDbCircle
 10
0.0
 20
0.0
 30
0.0
 40
14.07107543945312
100
AcDbArc
 50
89.99998201391065
 51
124.7659180968422
  0
ARC
  5
42E4
330
4222
100
AcDbEntity
  8
PROFILE2
 48
0.5
100
AcDbCircle
 10
0.0
 20
0.0
 30
0.0
 40
6.071075439453125
100
AcDbArc
 50
89.99998201391065
 51
110.6827237264364
  0
ARC
  5
42E5
330
4222
100
AcDbEntity
  8
PROFILE2
 48
0.5
100
AcDbCircle
 10
20.0
 20
0.071075439453125
 30
0.0
 40
6.0
100
AcDbArc
 50
0.0
 51
89.99998201391065
  0
ARC
  5
42E6
330
4222
100
AcDbEntity
  8
PROFILE2
 48
0.5
100
AcDbCircle
 10
20.0
 20
0.071075439453125
 30
0.0
 40
14.0
100
AcDbArc
 50
0.0
 51
89.99998201391065
  0
ARC
  5
42E7
330
4222
100
AcDbEntity
  8
CENTER1
 48
0.5
100
AcDbCircle
 10
20.0
 20
0.071075439453125
 30
0.0
 40
10.0
100
AcDbArc
 50
0.0
 51
89.99998201391065
  0
ARC
  5
42E8
330
4222
100
AcDbEntity
  8
CENTER1
 48
0.5
100
AcDbCircle
 10
0.0
 20
0.0
 30
0.0
 40
142.0710754394531
100
AcDbArc
 50
0.0
 51
43.99172872696179
  0
ARC
  5
42E9
330
4222
100
AcDbEntity
  8
CENTER1
 48
0.5
100
AcDbCircle
 10
0.0
 20
0.0
 30
0.0
 40
109.0710754394531
100
AcDbArc
 50
0.0
 51
43.68661734654815
  0
ARC
  5
42EA
330
4222
100
AcDbEntity
  8
CENTER1
 48
0.5
100
AcDbCircle
 10
0.0
 20
0.0
 30
0.0
 40
76.07107543945312
100
AcDbArc
 50
0.0
 51
43.11669953201312
  0
ARC
  5
42EB
330
4222
100
AcDbEntity
  8
CENTER1
 48
0.5
100
AcDbCircle
 10
0.0
 20
0.0
 30
0.0
 40
43.07107543945313
100
AcDbArc
 50
0.0
 51
41.67247310748686
  0
ARC
  5
42EC
330
4222
100
AcDbEntity
  8
CENTER1
 48
0.5
100
AcDbCircle
 10
0.0
 20
0.0
 30
0.0
 40
10.07107543945312
100
AcDbArc
 50
89.99998201391065
 51
120.6267688183012
  0
CIRCLE
  5
42ED
330
4222
100
AcDbEntity
  8
PROFILE2
 48
0.5
100
AcDbCircle
 10
0.0
 20
0.0
 30
0.0
 40
225.0
  0
LINE
  5
42EE
330
4222
100
AcDbEntity
  8
CENTER1
 48
0.5
100
AcDbLine
 10
96.40078907645886
 20
166.9710289905243
 30
0.0
 11
115.680225578848
 21
200.3639879738649
 31
0.0
  0
LINE
  5
42EF
330
4222
100
AcDbEntity
  8
CENTER1
 48
0.5
100
AcDbLine
 10
167.9790048713565
 20
96.98274040249096
 30
0.0
 11
203.0098108808032
 21
117.2077822419661
 31
0.0
  0
LINE
  5
42F0
330
4222
100
AcDbEntity
  8
CENTER1
 48
0.5
100
AcDbLine
 10
-167.0177662295557
 20
96.42777847944238
 30
0.0
 11
-200.9566425840969
 21
116.0224005662796
 31
0.0
  0
LINE
  5
42F1
330
4222
100
AcDbEntity
  8
CENTER1
 48
0.5
100
AcDbLine
 10
-96.47245298428387
 20
167.0952367401435
 30
0.0
 11
-111.3260243323872
 21
192.8223892692651
 31
0.0
  0
LINE
  5
42F2
330
4222
100
AcDbEntity
  8
CENTER1
 48
0.5
100
AcDbLine
 10
202.589542987216
 20
-116.9651302597529
 30
0.0
 11
168.5043557028255
 21
-97.2860355065957
 31
0.0
  0
LINE
  5
42F3
330
4222
100
AcDbEntity
  8
CENTER1
 48
0.5
100
AcDbLine
 10
117.4662675023104
 20
-203.4576737251616
 30
0.0
 11
97.10802893337714
 21
-168.1961533397577
 31
0.0
  0
LINE
  5
42F4
330
4222
100
AcDbEntity
  8
CENTER1
 48
0.5
100
AcDbLine
 10
-117.040840982021
 20
-202.7206680150857
 30
0.0
 11
-96.31864002541432
 21
-166.8287680364346
 31
0.0
  0
LINE
  5
42F5
330
4222
100
AcDbEntity
  8
CENTER1
 48
0.5
100
AcDbLine
 10
-203.435029387938
 20
-117.4532157852363
 30
0.0
 11
-167.5431137245088
 21
-96.73101213979307
 31
0.0
  0
LINE
  5
42F6
330
4222
100
AcDbEntity
  8
HIDDEN2
 48
0.5
100
AcDbLine
 10
-26.0
 20
-178.1123199462889
 30
0.0
 11
-26.0
 21
-205.9910278320312
 31
0.0
  0
LINE
  5
42F7
330
4222
100
AcDbEntity
  8
HIDDEN2
 48
0.5
100
AcDbLine
 10
-34.0
 20
-176.7597198486328
 30
0.0
 11
-34.0
 21
-205.9910278320312
 31
0.0
  0
LINE
  5
42F8
330
4222
100
AcDbEntity
  8
HIDDEN2
 48
0.5
100
AcDbLine
 10
-22.66898906392271
 20
-205.9910035845151
 30
0.0
 11
-21.66898994109033
 21
-206.9910065848617
 31
0.0
  0
LINE
  5
42F9
330
4222
100
AcDbEntity
  8
HIDDEN2
 48
0.5
100
AcDbLine
 10
-38.33098952753699
 20
-206.9910162261686
 30
0.0
 11
-37.33098846594748
 21
-205.991015164579
 31
0.0
  0
LINE
  5
42FA
330
4222
100
AcDbEntity
  8
HIDDEN2
 48
0.5
100
AcDbLine
 10
-37.33099365234375
 20
-205.9910278320312
 30
0.0
 11
-22.66900634765625
 21
-205.9910278320312
 31
0.0
  0
LINE
  5
42FB
330
4222
100
AcDbEntity
  8
HIDDEN2
 48
0.5
100
AcDbLine
 10
-38.33099365234375
 20
-206.9910278320314
 30
0.0
 11
-21.66900634765625
 21
-206.9910278320314
 31
0.0
  0
LINE
  5
42FC
330
4222
100
AcDbEntity
  8
HIDDEN2
 48
0.5
100
AcDbLine
 10
20.0
 20
-221.9910278320313
 30
0.0
 11
36.67402648925782
 21
-221.9910278320313
 31
0.0
  0
LINE
  5
42FD
330
4222
100
AcDbEntity
  8
HIDDEN2
 48
0.5
100
AcDbLine
 10
-22.52499389648438
 20
-205.9910278320312
 30
0.0
 11
-22.52499389648438
 21
-221.9910278320313
 31
0.0
  0
LINE
  5
42FE
330
4222
100
AcDbEntity
  8
HIDDEN2
 48
0.5
100
AcDbLine
 10
-37.47500610351564
 20
-205.9910278320312
 30
0.0
 11
-37.47500610351564
 21
-221.8572235107422
 31
0.0
  0
LINE
  5
42FF
330
4222
100
AcDbEntity
  8
HIDDEN2
 48
0.5
100
AcDbLine
 10
-21.66900634765625
 20
-206.9910278320314
 30
0.0
 11
-21.66900634765625
 21
-221.9910278320313
 31
0.0
  0
LINE
  5
4300
330
4222
100
AcDbEntity
  8
HIDDEN2
 48
0.5
100
AcDbLine
 10
-38.33099365234375
 20
-206.9910278320314
 30
0.0
 11
-38.33099365234375
 21
-221.7109222412109
 31
0.0
  0
LINE
  5
4301
330
4222
100
AcDbEntity
  8
HIDDEN2
 48
0.5
100
AcDbLine
 10
-20.0
 20
-221.9910278320313
 30
0.0
 11
-20.0
 21
-224.1093444824219
 31
0.0
  0
LINE
  5
4302
330
4222
100
AcDbEntity
  8
HIDDEN2
 48
0.5
100
AcDbLine
 10
34.0
 20
-176.7597198486328
 30
0.0
 11
34.0
 21
-205.9910278320312
 31
0.0
  0
LINE
  5
4303
330
4222
100
AcDbEntity
  8
HIDDEN2
 48
0.5
100
AcDbLine
 10
26.0
 20
-178.1123199462889
 30
0.0
 11
26.0
 21
-205.9910278320312
 31
0.0
  0
LINE
  5
4304
330
4222
100
AcDbEntity
  8
HIDDEN2
 48
0.5
100
AcDbLine
 10
20.0
 20
-221.9910278320313
 30
0.0
 11
20.0
 21
-224.1093444824219
 31
0.0
  0
LINE
  5
4305
330
4222
100
AcDbEntity
  8
HIDDEN2
 48
0.5
100
AcDbLine
 10
37.33101456351143
 20
-205.9910246172276
 30
0.0
 11
38.33100862868742
 21
-206.9910110960445
 31
0.0
  0
LINE
  5
4306
330
4222
100
AcDbEntity
  8
HIDDEN2
 48
0.5
100
AcDbLine
 10
21.66899864068182
 20
-206.9910054365755
 30
0.0
 11
22.66899970227132
 21
-205.991004374986
 31
0.0
  0
LINE
  5
4307
330
4222
100
AcDbEntity
  8
HIDDEN2
 48
0.5
100
AcDbLine
 10
22.66900634765625
 20
-205.9910278320312
 30
0.0
 11
37.33099365234375
 21
-205.9910278320312
 31
0.0
  0
LINE
  5
4308
330
4222
100
AcDbEntity
  8
HIDDEN2
 48
0.5
100
AcDbLine
 10
21.66900634765625
 20
-206.9910278320314
 30
0.0
 11
38.33099365234375
 21
-206.9910278320314
 31
0.0
  0
LINE
  5
4309
330
4222
100
AcDbEntity
  8
HIDDEN2
 48
0.5
100
AcDbLine
 10
22.52499389648438
 20
-205.9910278320312
 30
0.0
 11
22.52499389648438
 21
-221.9910278320313
 31
0.0
  0
LINE
  5
430A
330
4222
100
AcDbEntity
  8
HIDDEN2
 48
0.5
100
AcDbLine
 10
37.47500610351564
 20
-205.9910278320312
 30
0.0
 11
37.47500610351564
 21
-221.8572235107422
 31
0.0
  0
LINE
  5
430B
330
4222
100
AcDbEntity
  8
HIDDEN2
 48
0.5
100
AcDbLine
 10
38.33099365234375
 20
-206.9910278320314
 30
0.0
 11
38.33099365234375
 21
-221.7109222412109
 31
0.0
  0
LINE
  5
430C
330
4222
100
AcDbEntity
  8
HIDDEN2
 48
0.5
100
AcDbLine
 10
21.66900634765625
 20
-206.9910278320314
 30
0.0
 11
21.66900634765625
 21
-221.9910278320313
 31
0.0
  0
LINE
  5
430D
330
4222
100
AcDbEntity
  8
HIDDEN2
 48
0.5
100
AcDbLine
 10
-36.67404174804687
 20
-221.9910278320313
 30
0.0
 11
-20.0
 21
-221.9910278320313
 31
0.0
  0
LINE
  5
430E
330
4222
100
AcDbEntity
  8
PROFILE2
 48
0.5
100
AcDbLine
 10
-8.182014616851175
 20
-11.71750629161556
 30
0.0
 11
4.043890072552073
 21
-23.94340995045218
 31
0.0
  0
LINE
  5
430F
330
4222
100
AcDbEntity
  8
CENTER1
 48
0.5
100
AcDbLine
 10
-5.353584168763631
 20
-8.889075605109153
 30
0.0
 11
9.192299010398414
 21
-23.43495755814501
 31
0.0
  0
LINE
  5
4310
330
4222
100
AcDbEntity
  8
PROFILE2
 48
0.5
100
AcDbLine
 10
-2.525153046326522
 20
-6.060644244253126
 30
0.0
 11
12.02073013283552
 21
-20.60652619728899
 31
0.0
  0
LINE
  5
4311
330
4222
100
AcDbEntity
  8
PROFILE2
 48
0.5
100
AcDbLine
 10
34.00000606591203
 20
-37.53553839404981
 30
0.0
 11
125.4991830091538
 21
-129.0347076244882
 31
0.0
  0
LINE
  5
4312
330
4222
100
AcDbEntity
  8
CENTER1
 48
0.5
100
AcDbLine
 10
34.00001085965143
 20
-34.00002103605001
 30
0.0
 11
132.8195928162322
 21
-132.8195946627634
 31
0.0
  0
LINE
  5
4313
330
4222
100
AcDbEntity
  8
PROFILE2
 48
0.5
100
AcDbLine
 10
34.00000913963663
 20
-30.46446703342918
 30
0.0
 11
129.0347202263262
 21
-125.4991701092922
 31
0.0
  0
LINE
  5
4314
330
4222
100
AcDbEntity
  8
PROFILE2
 48
0.5
100
AcDbLine
 10
17.60657051588981
 20
14.07109318040489
 30
0.0
 11
129.0346885318967
 21
125.4992018037244
 31
0.0
  0
LINE
  5
4315
330
4222
100
AcDbEntity
  8
CENTER1
 48
0.5
100
AcDbLine
 10
14.07105782874563
 20
14.07107202212262
 30
0.0
 11
133.4665357005454
 21
133.4665398296368
 31
0.0
  0
LINE
  5
4316
330
4222
100
AcDbEntity
  8
PROFILE2
 48
0.5
100
AcDbLine
 10
10.53551466530945
 20
14.07108134013492
 30
0.0
 11
125.4991668247642
 21
129.0347238088791
 31
0.0
  0
LINE
  5
4317
330
4222
100
AcDbEntity
  8
PROFILE2
 48
0.5
100
AcDbLine
 10
-0.0000221045258399
 20
-3.535513089599816
 30
0.0
 11
25.99999689884572
 21
-29.5355299013338
 31
0.0
  0
LINE
  5
4318
330
4222
100
AcDbEntity
  8
CENTER1
 48
0.5
100
AcDbLine
 10
1.767749760937489
 20
-1.767762654312345
 30
0.0
 11
26.00001248217906
 21
-26.00002333292704
 31
0.0
  0
LINE
  5
4319
330
4222
100
AcDbEntity
  8
PROFILE2
 48
0.5
100
AcDbLine
 10
3.535515112646634
 20
0.0000244255961661
 30
0.0
 11
25.99999997257032
 21
-22.46445854071317
 31
0.0
  0
LINE
  5
431A
330
4222
100
AcDbEntity
  8
PROFILE2
 48
0.5
100
AcDbLine
 10
-129.0347451772611
 20
-125.4991667375432
 30
0.0
 11
2.535520333934811
 21
6.071087683109339
 31
0.0
  0
LINE
  5
431B
330
4222
100
AcDbEntity
  8
PROFILE2
 48
0.5
100
AcDbLine
 10
-125.4992126805346
 20
-129.0346779531048
 30
0.0
 11
9.606574161466312
 21
6.071097500330608
 31
0.0
  0
LINE
  5
431C
330
4222
100
AcDbEntity
  8
PROFILE2
 48
0.5
100
AcDbLine
 10
-125.4991701965111
 20
129.034698857944
 30
0.0
 11
-0.0000190308012407
 21
3.535558271020818
 31
0.0
  0
LINE
  5
431D
330
4222
100
AcDbEntity
  8
PROFILE2
 48
0.5
100
AcDbLine
 10
-129.0347505720594
 20
125.4992045011201
 30
0.0
 11
-3.535556247973715
 21
0.0000207558248349
 31
0.0
  0
LINE
  5
431E
330
4222
100
AcDbEntity
  8
CENTER1
 48
0.5
100
AcDbLine
 10
-132.6692960253885
 20
132.6692717998188
 30
0.0
 11
-1.767784382510384
 21
1.767771191112305
 31
0.0
  0
LINE
  5
431F
330
4222
100
AcDbEntity
  8
CENTER1
 48
0.5
100
AcDbLine
 10
-135.4119040784659
 20
-135.4118772846183
 30
0.0
 11
6.071058102574022
 21
6.071072970300518
 31
0.0
  0
LINE
  5
4320
330
4222
100
AcDbEntity
  8
PROFILE2
 48
0.5
100
AcDbLine
 10
-26.0
 20
-146.7160949707031
 30
0.0
 11
-26.0
 21
-178.1123199462889
 31
0.0
  0
LINE
  5
4321
330
4222
100
AcDbEntity
  8
PROFILE2
 48
0.5
100
AcDbLine
 10
-34.0
 20
-146.7160949707031
 30
0.0
 11
-34.0
 21
-176.7597198486328
 31
0.0
  0
LINE
  5
4322
330
4222
100
AcDbEntity
  8
PROFILE2
 48
0.5
100
AcDbLine
 10
-11.0
 20
-108.0347137451172
 30
0.0
 11
-11.0
 21
-131.9763946533203
 31
0.0
  0
LINE
  5
4323
330
4222
100
AcDbEntity
  8
PROFILE2
 48
0.5
100
AcDbLine
 10
-19.0
 20
-108.0347137451172
 30
0.0
 11
-19.0
 21
-131.9763946533203
 31
0.0
  0
LINE
  5
4324
330
4222
100
AcDbEntity
  8
CENTER1
 48
0.5
100
AcDbLine
 10
-15.0
 20
-100.2935333251953
 30
0.0
 11
-15.0
 21
-131.9763946533203
 31
0.0
  0
LINE
  5
4325
330
4222
100
AcDbEntity
  8
PROFILE2
 48
0.5
100
AcDbLine
 10
-10.0
 20
-75.83407592773437
 30
0.0
 11
-10.0
 21
-98.99029541015623
 31
0.0
  0
LINE
  5
4326
330
4222
100
AcDbEntity
  8
PROFILE2
 48
0.5
100
AcDbLine
 10
-2.0
 20
-75.83407592773437
 30
0.0
 11
-2.0
 21
-98.99029541015623
 31
0.0
  0
LINE
  5
4327
330
4222
100
AcDbEntity
  8
CENTER1
 48
0.5
100
AcDbLine
 10
-6.0
 20
-69.05967712402342
 30
0.0
 11
-6.0
 21
-98.99029541015623
 31
0.0
  0
LINE
  5
4328
330
4222
100
AcDbEntity
  8
PROFILE2
 48
0.5
100
AcDbLine
 10
-4.0
 20
-43.07107543945313
 30
0.0
 11
-4.0
 21
-65.30992126464844
 31
0.0
  0
LINE
  5
4329
330
4222
100
AcDbEntity
  8
PROFILE2
 48
0.5
100
AcDbLine
 10
4.0
 20
-43.07107543945313
 30
0.0
 11
4.0
 21
-65.30992126464844
 31
0.0
  0
LINE
  5
432A
330
4222
100
AcDbEntity
  8
PROFILE2
 48
0.5
100
AcDbLine
 10
10.0
 20
-27.43247985839844
 30
0.0
 11
10.0
 21
-32.1555633544922
 31
0.0
  0
LINE
  5
432B
330
4222
100
AcDbEntity
  8
PROFILE2
 48
0.5
100
AcDbLine
 10
2.0
 20
-27.43247985839844
 30
0.0
 11
2.0
 21
-32.1555633544922
 31
0.0
  0
LINE
  5
432C
330
4222
100
AcDbEntity
  8
CENTER1
 48
0.5
100
AcDbLine
 10
6.0
 20
-22.22520446777344
 30
0.0
 11
6.0
 21
-32.1555633544922
 31
0.0
  0
LINE
  5
432D
330
4222
100
AcDbEntity
  8
PROFILE2
 48
0.5
100
AcDbLine
 10
0.0
 20
6.071075439453125
 30
0.0
 11
20.0
 21
6.071075439453125
 31
0.0
  0
LINE
  5
432E
330
4222
100
AcDbEntity
  8
PROFILE2
 48
0.5
100
AcDbLine
 10
0.0
 20
14.07107543945312
 30
0.0
 11
20.0
 21
14.07107543945312
 31
0.0
  0
LINE
  5
432F
330
4222
100
AcDbEntity
  8
PROFILE2
 48
0.5
100
AcDbLine
 10
26.0
 20
0.071075439453125
 30
0.0
 11
26.0
 21
-178.1123199462889
 31
0.0
  0
LINE
  5
4330
330
4222
100
AcDbEntity
  8
PROFILE2
 48
0.5
100
AcDbLine
 10
34.0
 20
0.071075439453125
 30
0.0
 11
34.0
 21
-176.7597198486328
 31
0.0
  0
LINE
  5
4331
330
4222
100
AcDbEntity
  8
CENTER1
 48
0.5
100
AcDbLine
 10
0.0
 20
10.07107543945312
 30
0.0
 11
20.0
 21
10.07107543945312
 31
0.0
  0
LINE
  5
4332
330
4222
100
AcDbEntity
  8
CENTER1
 48
0.5
100
AcDbLine
 10
30.0
 20
0.071075439453125
 30
0.0
 11
30.0
 21
-234.8724975585938
 31
0.0
  0
LINE
  5
4333
330
4222
100
AcDbEntity
  8
CENTER1
 48
0.5
100
AcDbLine
 10
-30.0
 20
-146.7160949707031
 30
0.0
 11
-30.0
 21
-234.7713928222656
 31
0.0
  0
LINE
  5
4334
330
4222
100
AcDbEntity
  8
CENTER1
 48
0.5
100
AcDbLine
 10
0.0
 20
245.519287109375
 30
0.0
 11
0.0
 21
-284.154296875
 31
0.0
  0
LINE
  5
4335
330
4222
100
AcDbEntity
  8
CENTER1
 48
0.5
100
AcDbLine
 10
-266.7060546875
 20
0.0
 30
0.0
 11
265.866943359375
 21
0.0
 31
0.0
  0
POINT
  5
4336
330
4222
100
AcDbEntity
  8
NONPLOT
 48
0.5
100
AcDbPoint
 10
0.0
 20
0.0
 30
0.0
  0
ENDBLK
  5
4337
330
4222
100
AcDbEntity
  8
0
370
    -2
100
AcDbBlockEnd
  0
BLOCK
  5
4339
330
4338
100
AcDbEntity
  8
0
370
    -2
100
AcDbBlockBegin
  2
BW-14_SC_3
 70
     0
 10
0.0
 20
0.0
 30
0.0
  3
BW-14_SC_3
  1

  0
ARC
  5
433A
330
4338
100
AcDbEntity
  8
PROFILE2
 48
0.5
100
AcDbCircle
 10
0.0
 20
17.5
 30
0.0
 40
2.5
100
AcDbArc
 50
270.0000179860893
 51
89.99998201391065
  0
ARC
  5
433B
330
4338
100
AcDbEntity
  8
PROFILE2
 48
0.5
100
AcDbCircle
 10
10.07107543945312
 20
24.0
 30
0.0
 40
4.0
100
AcDbArc
 50
270.0000179860893
 51
89.99998201391065
  0
ARC
  5
433C
330
4338
100
AcDbEntity
  8
PROFILE2
 48
0.5
100
AcDbCircle
 10
-137.0710754394531
 20
16.0
 30
0.0
 40
12.0
100
AcDbArc
 50
89.99998201391065
 51
135.0000003416226
  0
ARC
  5
433D
330
4338
100
AcDbEntity
  8
PROFILE2
 48
0.5
100
AcDbCircle
 10
-137.0710754394531
 20
16.0
 30
0.0
 40
4.0
100
AcDbArc
 50
89.99998201391065
 51
134.9999457001093
  0
ARC
  5
433E
330
4338
100
AcDbEntity
  8
CENTER1
 48
0.5
100
AcDbCircle
 10
-137.0710754394531
 20
16.0
 30
0.0
 40
8.0
100
AcDbArc
 50
89.99998201391065
 51
134.9999457001093
  0
ARC
  5
433F
330
4338
100
AcDbEntity
  8
PROFILE2
 48
0.5
100
AcDbCircle
 10
-110.4403839111328
 20
9.5
 30
0.0
 40
10.5
100
AcDbArc
 50
89.99998201391065
 51
180.0000186693347
  0
ARC
  5
4340
330
4338
100
AcDbEntity
  8
PROFILE2
 48
0.5
100
AcDbCircle
 10
-110.4403839111328
 20
9.5
 30
0.0
 40
5.5
100
AcDbArc
 50
89.99998201391065
 51
180.0000186693347
  0
ARC
  5
4341
330
4338
100
AcDbEntity
  8
CENTER1
 48
0.5
100
AcDbCircle
 10
-110.4403839111328
 20
9.5
 30
0.0
 40
8.0
100
AcDbArc
 50
89.99998201391065
 51
180.0000186693347
  0
ARC
  5
4342
330
4338
100
AcDbEntity
  8
PROFILE2
 48
0.5
100
AcDbCircle
 10
-142.0710754394531
 20
11.0
 30
0.0
 40
4.0
100
AcDbArc
 50
89.99998201391065
 51
270.0000006832453
  0
ARC
  5
4343
330
4338
100
AcDbEntity
  8
PROFILE2
 48
0.5
100
AcDbCircle
 10
142.0710754394531
 20
11.0
 30
0.0
 40
4.0
100
AcDbArc
 50
270.0000179860893
 51
89.99998201391065
  0
ARC
  5
4344
330
4338
100
AcDbEntity
  8
PROFILE2
 48
0.5
100
AcDbCircle
 10
110.4403991699218
 20
9.5
 30
0.0
 40
10.5
100
AcDbArc
 50
0.0
 51
89.99998201391065
  0
ARC
  5
4345
330
4338
100
AcDbEntity
  8
PROFILE2
 48
0.5
100
AcDbCircle
 10
110.4403991699218
 20
9.5
 30
0.0
 40
5.5
100
AcDbArc
 50
0.0
 51
89.99998201391065
  0
ARC
  5
4346
330
4338
100
AcDbEntity
  8
CENTER1
 48
0.5
100
AcDbCircle
 10
110.4403991699218
 20
9.5
 30
0.0
 40
8.0
100
AcDbArc
 50
0.0
 51
89.99998201391065
  0
LINE
  5
4347
330
4338
100
AcDbEntity
  8
PROFILE2
 48
0.5
100
AcDbLine
 10
-221.9910278320313
 20
-1.0
 30
0.0
 11
-225.0
 21
-1.0
 31
0.0
  0
LINE
  5
4348
330
4338
100
AcDbEntity
  8
PROFILE2
 48
0.5
100
AcDbLine
 10
-221.9910278320313
 20
-21.0
 30
0.0
 11
-225.0
 21
-21.0
 31
0.0
  0
LINE
  5
4349
330
4338
100
AcDbEntity
  8
PROFILE2
 48
0.5
100
AcDbLine
 10
-221.9910278320313
 20
-1.0
 30
0.0
 11
-221.9910278320313
 21
-21.0
 31
0.0
  0
LINE
  5
434A
330
4338
100
AcDbEntity
  8
CENTER1
 48
0.5
100
AcDbLine
 10
0.0
 20
54.1820068359375
 30
0.0
 11
0.0
 21
-61.84988403320311
 31
0.0
  0
LINE
  5
434B
330
4338
100
AcDbEntity
  8
HIDDEN1
 48
0.5
100
AcDbLine
 10
-190.0
 20
0.0
 30
0.0
 11
-190.0
 21
-4.5
 31
0.0
  0
LINE
  5
434C
330
4338
100
AcDbEntity
  8
HIDDEN1
 48
0.5
100
AcDbLine
 10
-190.0
 20
-4.5
 30
0.0
 11
-198.0
 21
-4.5
 31
0.0
  0
LINE
  5
434D
330
4338
100
AcDbEntity
  8
HIDDEN1
 48
0.5
100
AcDbLine
 10
-198.0
 20
0.0
 30
0.0
 11
-198.0
 21
-4.5
 31
0.0
  0
LINE
  5
434E
330
4338
100
AcDbEntity
  8
HIDDEN1
 48
0.5
100
AcDbLine
 10
190.0
 20
-4.5
 30
0.0
 11
198.0
 21
-4.5
 31
0.0
  0
LINE
  5
434F
330
4338
100
AcDbEntity
  8
HIDDEN1
 48
0.5
100
AcDbLine
 10
190.0
 20
0.0
 30
0.0
 11
190.0
 21
-4.5
 31
0.0
  0
LINE
  5
4350
330
4338
100
AcDbEntity
  8
HIDDEN1
 48
0.5
100
AcDbLine
 10
198.0
 20
0.0
 30
0.0
 11
198.0
 21
-4.5
 31
0.0
  0
LINE
  5
4351
330
4338
100
AcDbEntity
  8
PROFILE2
 48
0.5
100
AcDbLine
 10
14.07107543945312
 20
24.0
 30
0.0
 11
14.07107543945312
 21
20.0
 31
0.0
  0
LINE
  5
4352
330
4338
100
AcDbEntity
  8
CENTER1
 48
0.5
100
AcDbLine
 10
10.07107543945312
 20
29.76260375976563
 30
0.0
 11
10.07107543945312
 21
18.89523315429687
 31
0.0
  0
LINE
  5
4353
330
4338
100
AcDbEntity
  8
CENTER1
 48
0.5
100
AcDbLine
 10
16.45545959472656
 20
24.0
 30
0.0
 11
-137.0710754394531
 21
24.0
 31
0.0
  0
LINE
  5
4354
330
4338
100
AcDbEntity
  8
PROFILE2
 48
0.5
100
AcDbLine
 10
-145.5563430389184
 20
24.48524995331445
 30
0.0
 11
-170.0416196741835
 21
-0.0000287459051833
 31
0.0
  0
LINE
  5
4355
330
4338
100
AcDbEntity
  8
CENTER1
 48
0.5
100
AcDbLine
 10
-142.7279373033488
 20
21.65686603534778
 30
0.0
 11
-164.3847868622741
 21
0.0000146508864418
 31
0.0
  0
LINE
  5
4356
330
4338
100
AcDbEntity
  8
PROFILE2
 48
0.5
100
AcDbLine
 10
-139.8994884094027
 20
18.82841737982198
 30
0.0
 11
-158.7279108919883
 21
-0.0000066898810474
 31
0.0
  0
LINE
  5
4357
330
4338
100
AcDbEntity
  8
PROFILE2
 48
0.5
100
AcDbLine
 10
-120.9403839111328
 20
7.0
 30
0.0
 11
-142.0710754394531
 21
7.0
 31
0.0
  0
LINE
  5
4358
330
4338
100
AcDbEntity
  8
PROFILE2
 48
0.5
100
AcDbLine
 10
-119.3846588134765
 20
15.0
 30
0.0
 11
-142.0710754394531
 21
15.0
 31
0.0
  0
LINE
  5
4359
330
4338
100
AcDbEntity
  8
PROFILE2
 48
0.5
100
AcDbLine
 10
-120.9403839111328
 20
9.5
 30
0.0
 11
-120.9403839111328
 21
0.0
 31
0.0
  0
LINE
  5
435A
330
4338
100
AcDbEntity
  8
PROFILE2
 48
0.5
100
AcDbLine
 10
-115.9403839111328
 20
9.5
 30
0.0
 11
-115.9403839111328
 21
0.0
 31
0.0
  0
LINE
  5
435B
330
4338
100
AcDbEntity
  8
CENTER1
 48
0.5
100
AcDbLine
 10
-118.4403839111328
 20
9.5
 30
0.0
 11
-118.4403839111328
 21
0.0
 31
0.0
  0
LINE
  5
435C
330
4338
100
AcDbEntity
  8
PROFILE2
 48
0.5
100
AcDbLine
 10
115.9403991699218
 20
7.0
 30
0.0
 11
-115.9403839111328
 21
7.0
 31
0.0
  0
LINE
  5
435D
330
4338
100
AcDbEntity
  8
PROFILE2
 48
0.5
100
AcDbLine
 10
110.4403991699218
 20
15.0
 30
0.0
 11
-110.4403839111328
 21
15.0
 31
0.0
  0
LINE
  5
435E
330
4338
100
AcDbEntity
  8
CENTER1
 48
0.5
100
AcDbLine
 10
150.7129516601562
 20
11.0
 30
0.0
 11
-149.2250823974609
 21
11.0
 31
0.0
  0
LINE
  5
435F
330
4338
100
AcDbEntity
  8
PROFILE2
 48
0.5
100
AcDbLine
 10
142.0710754394531
 20
7.0
 30
0.0
 11
120.9403991699218
 21
7.0
 31
0.0
  0
LINE
  5
4360
330
4338
100
AcDbEntity
  8
PROFILE2
 48
0.5
100
AcDbLine
 10
-140.4142162578528
 20
7.000001808138222
 30
0.0
 11
-147.4142128993862
 21
0.000004576549145
 31
0.0
  0
LINE
  5
4361
330
4338
100
AcDbEntity
  8
PROFILE2
 48
0.5
100
AcDbLine
 10
140.4141946786676
 20
7.000044966513088
 30
0.0
 11
147.4142236889802
 21
0.0000153661421791
 31
0.0
  0
LINE
  5
4362
330
4338
100
AcDbEntity
  8
PROFILE2
 48
0.5
100
AcDbLine
 10
120.9403991699218
 20
9.5
 30
0.0
 11
120.9403991699218
 21
0.0
 31
0.0
  0
LINE
  5
4363
330
4338
100
AcDbEntity
  8
PROFILE2
 48
0.5
100
AcDbLine
 10
115.9403991699218
 20
9.5
 30
0.0
 11
115.9403991699218
 21
0.0
 31
0.0
  0
LINE
  5
4364
330
4338
100
AcDbEntity
  8
CENTER1
 48
0.5
100
AcDbLine
 10
118.4403991699219
 20
9.5
 30
0.0
 11
118.4403991699219
 21
0.0
 31
0.0
  0
LINE
  5
4365
330
4338
100
AcDbEntity
  8
PROFILE2
 48
0.5
100
AcDbLine
 10
142.0710754394531
 20
15.0
 30
0.0
 11
119.3846740722656
 21
15.0
 31
0.0
  0
LINE
  5
4366
330
4338
100
AcDbEntity
  8
CENTER1
 48
0.5
100
AcDbLine
 10
110.4403991699218
 20
17.5
 30
0.0
 11
-110.4403839111328
 21
17.5
 31
0.0
  0
LINE
  5
4367
330
4338
100
AcDbEntity
  8
PROFILE2
 48
0.5
100
AcDbLine
 10
110.4403991699218
 20
20.0
 30
0.0
 11
-137.0710754394531
 21
20.0
 31
0.0
  0
LINE
  5
4368
330
4338
100
AcDbEntity
  8
PROFILE2
 48
0.5
100
AcDbLine
 10
10.07107543945312
 20
28.0
 30
0.0
 11
-137.0710754394531
 21
28.0
 31
0.0
  0
LINE
  5
4369
330
4338
100
AcDbEntity
  8
PROFILE2
 48
0.5
100
AcDbLine
 10
225.0
 20
0.0
 30
0.0
 11
225.0
 21
-22.0
 31
0.0
  0
LINE
  5
436A
330
4338
100
AcDbEntity
  8
PROFILE2
 48
0.5
100
AcDbLine
 10
-225.0
 20
0.0
 30
0.0
 11
-225.0
 21
-22.0
 31
0.0
  0
LINE
  5
436B
330
4338
100
AcDbEntity
  8
PROFILE2
 48
0.5
100
AcDbLine
 10
225.0
 20
-22.0
 30
0.0
 11
-225.0
 21
-22.0
 31
0.0
  0
LINE
  5
436C
330
4338
100
AcDbEntity
  8
PROFILE2
 48
0.5
100
AcDbLine
 10
225.0
 20
0.0
 30
0.0
 11
-225.0
 21
0.0
 31
0.0
  0
LINE
  5
436D
330
4338
100
AcDbEntity
  8
CENTER1
 48
0.5
100
AcDbLine
 10
248.0118713378906
 20
-11.0
 30
0.0
 11
-271.691162109375
 21
-11.0
 31
0.0
  0
POINT
  5
436E
330
4338
100
AcDbEntity
  8
NONPLOT
 48
0.5
100
AcDbPoint
 10
0.0
 20
0.0
 30
0.0
  0
ENDBLK
  5
436F
330
4338
100
AcDbEntity
  8
0
370
    -2
100
AcDbBlockEnd
  0
BLOCK
  5
4389
330
4388
100
AcDbEntity
  8
0
370
     0
100
AcDbBlockBegin
  2
GENAXEH
 70
     0
 10
0.0
 20
0.0
 30
0.0
  3
GENAXEH
  1

  0
LINE
  5
438A
330
4388
100
AcDbEntity
  8
0
100
AcDbLine
 10
-1.0
 20
0.0
 30
0.0
 11
1.0
 21
0.0
 31
0.0
  0
ENDBLK
  5
438B
330
4388
100
AcDbEntity
  8
0
370
     0
100
AcDbBlockEnd
  0
ENDSEC
  0
SECTION
  2
ENTITIES
  0
INSERT
  5
43CE
330
1F
100
AcDbEntity
  8
PROFILE2
100
AcDbBlockReference
  2
BW-14_SC_3
 10
1124.426978719604
 20
211.2930729532251
 30
0.0
  0
INSERT
  5
43CF
330
1F
100
AcDbEntity
  8
PROFILE2
100
AcDbBlockReference
  2
BW-14_SC_2
 10
493.6324770099941
 20
661.2931188488045
 30
0.0
  0
INSERT
  5
43D0
330
1F
100
AcDbEntity
  8
PROFILE2
100
AcDbBlockReference
  2
BW-14_SC_1
 10
493.6324770099941
 20
211.2930729532251
 30
0.0
  0
MTEXT
  5
43D1
330
1F
100
AcDbEntity
  8
TEXT
 48
0.5
100
AcDbMText
 10
914.5966007138786
 20
888.4755550278724
 30
0.0
 40
28.00000166893016
 41
0.0
 71
     1
 72
     1
  1
\A1;BW-14
  7
ULVAC
 73
     1
 44
0.9000000214576726
1001
ACAD
1000
MTEXTBEGIN
1070
    73
1070
     1
1070
    44
1040
0.9000000214576726
1070
    74
1070
     0
1000
MTEXTEND
  0
MTEXT
  5
43D2
330
1F
100
AcDbEntity
  8
TEXT
 48
0.5
100
AcDbMText
 10
919.2183958796702
 20
848.2255526287852
 30
0.0
 40
17.50000104308135
 41
0.0
 71
     1
 72
     1
  1
\W1.385;\A1;90.02.03.
  7
ULVAC
 73
     1
 44
0.9000000214576726
1001
ACAD
1000
MTEXTBEGIN
1070
    73
1070
     1
1070
    44
1040
0.9000000214576726
1070
    74
1070
     0
1000
MTEXTEND
  0
MTEXT
  5
43D3
330
1F
100
AcDbEntity
  8
TEXT
 48
0.5
100
AcDbMText
 10
1118.593645038577
 20
92.03340703131869
 30
0.0
 40
17.50000104308135
 41
0.0
 71
     1
 72
     1
  1
\A1;#3
  7
ULVAC
 73
     1
 44
0.9000000214576726
1001
ACAD
1000
MTEXTBEGIN
1070
    73
1070
     1
1070
    44
1040
0.9000000214576726
1070
    74
1070
     0
1000
MTEXTEND
  0
MTEXT
  5
43D4
330
1F
100
AcDbEntity
  8
TEXT
 48
0.5
100
AcDbMText
 10
487.7991433289669
 20
338.7990162221171
 30
0.0
 40
17.50000104308135
 41
0.0
 71
     1
 72
     1
  1
\A1;#2
  7
ULVAC
 73
     1
 44
0.9000000214576726
1001
ACAD
1000
MTEXTBEGIN
1070
    73
1070
     1
1070
    44
1040
0.9000000214576726
1070
    74
1070
     0
1000
MTEXTEND
  0
MTEXT
  5
43D5
330
1F
100
AcDbEntity
  8
TEXT
 48
0.5
100
AcDbMText
 10
488.3824766553463
 20
92.03340703131869
 30
0.0
 40
17.50000104308135
 41
0.0
 71
     1
 72
     1
  1
\W1.200;\A1;#1
  7
ULVAC
 73
     1
 44
0.9000000214576726
1001
ACAD
1000
MTEXTBEGIN
1070
    73
1070
     1
1070
    44
1040
0.9000000214576726
1070
    74
1070
     0
1000
MTEXTEND
  0
LINE
  5
43D8
330
1F
100
AcDbEntity
  8
NONPLOT
 48
0.5
100
AcDbLine
 10
1470.000088916976
 20
1039.500062015474
 30
0.0
 11
1470.000088916976
 21
0.0000000564423317
 31
0.0
  0
POINT
  5
43D9
330
1F
100
AcDbEntity
  8
NONPLOT
 48
0.5
100
AcDbPoint
 10
1470.000088916976
 20
0.0000000564423317
 30
0.0
  0
LINE
  5
441F
330
1F
100
AcDbEntity
  8
NONPLOT
 48
0.5
100
AcDbLine
 10
0.0000009488712749
 20
-0.0000001251305548
 30
0.0
 11
1470.000088567704
 21
-0.0000001251305548
 31
0.0
  0
VIEWPORT
  5
19A2
102
{ACAD_XDICTIONARY
360
4669
102
}
330
1B
100
AcDbEntity
 67
     1
  8
0
100
AcDbViewport
 10
133.3499908447265
 20
101.5999970436096
 30
0.0
 40
381.6322014063393
 41
228.4221935424805
 68
     1
 69
     1
 12
133.3499908447265
 22
101.5999970436096
 13
0.0
 23
0.0
 14
10.0
 24
10.0
 15
10.0
 25
10.0
 16
0.0
 26
0.0
 36
1.0
 17
0.0
 27
0.0
 37
0.0
 42
50.0
 43
0.0
 44
0.0
 45
228.4221935424805
 50
0.0
 51
0.0
 72
   100
 90
    32800
  1

281
     0
 71
     1
 74
     0
110
0.0
120
0.0
130
0.0
111
1.0
121
0.0
131
0.0
112
0.0
122
1.0
132
0.0
 79
     0
146
0.0
1001
GENIUS_GENSCREG_15
1000
PF
1040
1.0
1000
DF
1040
1.0
1000
MIN
1011
-57.46610985844319
1021
-12.61109972763063
1031
0.0
1000
MAX
1011
324.1660915478961
1021
215.8110938148499
1031
0.0
1000
FLAGS
1070
     4
1001
GENIUS_GENOBJ-N-SDF_13
1002
{
1000
OWNER
1000
GEN
1002
}
1001
GENIUS_GENODEF_13
1002
{
1000
HIER
1070
     0
1002
}
1002
{
1000
MANEDIT
1070
     0
1002
}
1002
{
1000
NOSEL
1070
     0
1002
}
1002
{
1000
BEHIND
1070
     0
1002
}
1002
{
1000
OTHER
1070
     0
1002
}
1002
{
1000
REACTOR
1002
}
  0
ENDSEC
  0
SECTION
  2
OBJECTS
  0
DICTIONARY
  5
C
330
0
100
AcDbDictionary
281
     1
  3
ACAD_2007HEADERVARS_RT
350
465D
  3
ACAD_COLOR
350
C5
  3
ACAD_FIELDLIST
350
2FF9
  3
ACAD_GROUP
350
D
  3
ACAD_LAYOUT
350
1A
  3
ACAD_MATERIAL
350
C4
  3
ACAD_MLEADERSTYLE
350
457F
  3
ACAD_MLINESTYLE
350
17
  3
ACAD_PLOTSETTINGS
350
19
  3
ACAD_PLOTSTYLENAME
350
E
  3
ACAD_SCALELIST
350
456D
  3
ACAD_TABLESTYLE
350
121
  3
ACAD_VISUALSTYLE
350
3739
  3
ACDB_RECOMPOSE_DATA
350
465B
  3
AcDbVariableDictionary
350
34
  3
AcmDictionary
350
49
  3
AMG
350
2B
  3
AMGSNAPSETTINGS
350
1C4
  3
ASE_INDEX_DICTIONARY
350
3710
  3
DWGPROPS
350
465C
  0
DICTIONARY
  5
BF
330
2
100
AcDbDictionary
280
     1
281
     1
  3
ACAD_LAYERSTATES
360
19A6
  3
AMLAYER_GROUPCOLORS
360
C0
  0
DICTIONARY
  5
45FE
330
10
100
AcDbDictionary
280
     1
281
     1
  3
ADSK_XREC_LAYER_RECONCILED
360
45FF
  0
DICTIONARY
  5
4600
330
81
100
AcDbDictionary
280
     1
281
     1
  3
ADSK_XREC_LAYER_RECONCILED
360
4601
  0
DICTIONARY
  5
4602
330
1BC
100
AcDbDictionary
280
     1
281
     1
  3
ADSK_XREC_LAYER_RECONCILED
360
4603
  0
DICTIONARY
  5
4604
330
1A29
100
AcDbDictionary
280
     1
281
     1
  3
ADSK_XREC_LAYER_RECONCILED
360
4605
  0
DICTIONARY
  5
4606
330
1A3F
100
AcDbDictionary
280
     1
281
     1
  3
ADSK_XREC_LAYER_RECONCILED
360
4607
  0
DICTIONARY
  5
4608
330
1A6C
100
AcDbDictionary
280
     1
281
     1
  3
ADSK_XREC_LAYER_RECONCILED
360
4609
  0
DICTIONARY
  5
460A
330
1A6D
100
AcDbDictionary
280
     1
281
     1
  3
ADSK_XREC_LAYER_RECONCILED
360
460B
  0
DICTIONARY
  5
460C
330
1A6E
100
AcDbDictionary
280
     1
281
     1
  3
ADSK_XREC_LAYER_RECONCILED
360
460D
  0
DICTIONARY
  5
460E
330
1A72
100
AcDbDictionary
280
     1
281
     1
  3
ADSK_XREC_LAYER_RECONCILED
360
460F
  0
DICTIONARY
  5
4610
330
1AE0
100
AcDbDictionary
280
     1
281
     1
  3
ADSK_XREC_LAYER_RECONCILED
360
4611
  0
DICTIONARY
  5
4612
330
1AE1
100
AcDbDictionary
280
     1
281
     1
  3
ADSK_XREC_LAYER_RECONCILED
360
4613
  0
DICTIONARY
  5
4614
330
1AE2
100
AcDbDictionary
280
     1
281
     1
  3
ADSK_XREC_LAYER_RECONCILED
360
4615
  0
DICTIONARY
  5
4616
330
1AE3
100
AcDbDictionary
280
     1
281
     1
  3
ADSK_XREC_LAYER_RECONCILED
360
4617
  0
DICTIONARY
  5
4618
330
1CA2
100
AcDbDictionary
280
     1
281
     1
  3
ADSK_XREC_LAYER_RECONCILED
360
4619
  0
DICTIONARY
  5
461A
330
1CA3
100
AcDbDictionary
280
     1
281
     1
  3
ADSK_XREC_LAYER_RECONCILED
360
461B
  0
DICTIONARY
  5
461C
330
1CA4
100
AcDbDictionary
280
     1
281
     1
  3
ADSK_XREC_LAYER_RECONCILED
360
461D
  0
DICTIONARY
  5
461E
330
1CA5
100
AcDbDictionary
280
     1
281
     1
  3
ADSK_XREC_LAYER_RECONCILED
360
461F
  0
DICTIONARY
  5
4620
330
393E
100
AcDbDictionary
280
     1
281
     1
  3
ADSK_XREC_LAYER_RECONCILED
360
4621
  0
DICTIONARY
  5
4622
330
3C35
100
AcDbDictionary
280
     1
281
     1
  3
ADSK_XREC_LAYER_RECONCILED
360
4623
  0
DICTIONARY
  5
4624
330
4044
100
AcDbDictionary
280
     1
281
     1
  3
ADSK_XREC_LAYER_RECONCILED
360
4625
  0
DICTIONARY
  5
4626
330
4392
100
AcDbDictionary
280
     1
281
     1
  3
ADSK_XREC_LAYER_RECONCILED
360
4627
  0
DICTIONARY
  5
4628
330
4393
100
AcDbDictionary
280
     1
281
     1
  3
ADSK_XREC_LAYER_RECONCILED
360
4629
  0
DICTIONARY
  5
82
330
1F
100
AcDbDictionary
280
     1
281
     1
  3
ACAD_SORTENTS
360
3064
  0
DICTIONARY
  5
380F
330
2851
100
AcDbDictionary
280
     1
281
     1
  0
DICTIONARY
  5
4096
330
4045
100
AcDbDictionary
280
     1
281
     1
  3
ACAD_SORTENTS
360
4097
  0
DICTIONARY
  5
41A2
330
40A1
100
AcDbDictionary
280
     1
281
     1
  3
ACAD_SORTENTS
360
41A3
  0
DICTIONARY
  5
417E
330
417D
100
AcDbDictionary
280
     1
281
     1
  0
DICTIONARY
  5
4669
330
19A2
100
AcDbDictionary
280
     1
281
     1
  3
ACAD_XREC_ROUNDTRIP
360
466A
  0
DICTIONARY
  5
465D
102
{ACAD_REACTORS
330
C
102
}
330
C
100
AcDbDictionary
281
     1
  3
DIMARCSYM
350
465E
  3
DIMLTEX1
350
4661
  3
DIMLTEX2
350
4662
  3
DIMLTYPE
350
4660
  3
DIMTFILLCLR
350
465F
  0
DICTIONARY
  5
C5
102
{ACAD_REACTORS
330
C
102
}
330
C
100
AcDbDictionary
281
     1
  0
FIELDLIST
  5
2FF9
102
{ACAD_REACTORS
330
C
102
}
330
C
100
AcDbIdSet
 90
        0
100
AcDbFieldList
  0
DICTIONARY
  5
D
102
{ACAD_REACTORS
330
C
102
}
330
C
100
AcDbDictionary
281
     1
  0
DICTIONARY
  5
1A
102
{ACAD_REACTORS
330
C
102
}
330
C
100
AcDbDictionary
281
     1
  3
Model
350
22
  3
レイアウト1
350
1E
  3
レイアウト2
350
26
  0
DICTIONARY
  5
C4
102
{ACAD_REACTORS
330
C
102
}
330
C
100
AcDbDictionary
281
     1
  3
ByBlock
350
3737
  3
ByLayer
350
3736
  3
Global
350
3738
  0
DICTIONARY
  5
457F
102
{ACAD_REACTORS
330
C
102
}
330
C
100
AcDbDictionary
281
     1
  3
Standard
350
4580
  0
DICTIONARY
  5
17
102
{ACAD_REACTORS
330
C
102
}
330
C
100
AcDbDictionary
281
     1
  3
Standard
350
18
  0
DICTIONARY
  5
19
102
{ACAD_REACTORS
330
C
102
}
330
C
100
AcDbDictionary
281
     1
  3
A1_フィット
350
3FFF
  3
A2_フィット
350
4000
  3
A3_フィット
350
4001
  3
A4_フィット_横
350
4002
  3
A4_フィット_縦
350
4003
  0
ACDBDICTIONARYWDFLT
  5
E
102
{ACAD_REACTORS
330
C
102
}
330
C
100
AcDbDictionary
281
     1
  3
Normal
350
F
100
AcDbDictionaryWithDefault
340
F
  0
DICTIONARY
  5
456D
102
{ACAD_REACTORS
330
C
102
}
330
C
100
AcDbDictionary
281
     1
  3
A0
350
456E
  3
A1
350
456F
  3
A2
350
4570
  3
A3
350
4571
  3
A4
350
4572
  3
A5
350
4573
  3
A6
350
4574
  3
A7
350
4575
  3
A8
350
4576
  3
A9
350
4577
  3
B0
350
4578
  3
B1
350
4579
  3
B2
350
457A
  3
B3
350
457B
  3
B4
350
457C
  3
B5
350
457D
  3
B6
350
457E
  0
DICTIONARY
  5
121
102
{ACAD_REACTORS
330
C
102
}
330
C
100
AcDbDictionary
281
     1
  3
Standard
350
122
  0
DICTIONARY
  5
3739
102
{ACAD_REACTORS
330
C
102
}
330
C
100
AcDbDictionary
281
     1
  3
2dWireframe
350
373F
  3
3D Hidden
350
3741
  3
3dWireframe
350
3740
  3
Basic
350
373E
  3
Brighten
350
3745
  3
ColorChange
350
3749
  3
Conceptual
350
3742
  3
Dim
350
3744
  3
EdgeColorOff
350
456C
  3
Facepattern
350
3748
  3
Flat
350
373A
  3
FlatWithEdges
350
373B
  3
Gouraud
350
373C
  3
GouraudWithEdges
350
373D
  3
JitterOff
350
456A
  3
Linepattern
350
3747
  3
OverhangOff
350
456B
  3
Realistic
350
3743
  3
Thicken
350
3746
  0
XRECORD
  5
465B
102
{ACAD_REACTORS
330
C
102
}
330
C
100
AcDbXrecord
280
     1
 90
        1
330
122
  0
DICTIONARY
  5
34
102
{ACAD_REACTORS
330
C
102
}
330
C
100
AcDbDictionary
281
     1
  3
CANNOSCALE
350
4635
  3
CMLEADERSTYLE
350
4633
  3
CTABLESTYLE
350
140
  3
DIMASSOC
350
AC
  3
INDEXCTL
350
35
  3
LAYEREVAL
350
4637
  3
LAYERNOTIFY
350
4638
  3
LIGHTINGUNITS
350
4636
  3
MSLTSCALE
350
4634
  3
SORTENTS
350
4540
  3
XCLIPFRAME
350
4658
  0
DICTIONARY
  5
49
102
{ACAD_REACTORS
330
C
102
}
330
C
100
AcDbDictionary
281
     1
  3
AcmBOM
350
1C1
  3
AcmStdDictionary
350
4A
  3
AMDTSECTSYM_ARROWCOLOR
350
12B
  0
DICTIONARY
  5
2B
102
{ACAD_REACTORS
330
C
102
}
330
C
100
AcDbDictionary
281
     1
  0
DICTIONARY
  5
1C4
102
{ACAD_REACTORS
330
C
102
}
330
C
100
AcDbDictionary
281
     1
  0
DICTIONARY
  5
3710
102
{ACAD_REACTORS
330
C
102
}
330
C
100
AcDbDictionary
281
     1
  3
ASEBlockHierarchyIndexRecord
350
3711
1001
DCO15
1040
1573990560.732
  0
XRECORD
  5
465C
102
{ACAD_REACTORS
330
C
102
}
330
C
100
AcDbXrecord
280
     1
  1
DWGPROPS COOKIE
  2

  3

  4

  6
ULVAC JIS テンプレート Revision 06
  7

  8
UJ35116
  9

300
AmdtFileType=84
301
=
302
=
303
=
304
=
305
=
306
=
307
=
308
=
309
=
 40
0.001736087962963
 41
2454292.679733854
 42
2455974.492150486
  1

 90
        1
  0
DICTIONARY
  5
19A6
102
{ACAD_REACTORS
330
BF
102
}
330
BF
100
AcDbDictionary
281
     1
  0
DICTIONARY
  5
C0
102
{ACAD_REACTORS
330
BF
102
}
330
BF
100
AcDbDictionary
280
     1
281
     1
  0
XRECORD
  5
45FF
102
{ACAD_REACTORS
330
45FE
102
}
330
45FE
100
AcDbXrecord
280
     1
290
     1
  0
XRECORD
  5
4601
102
{ACAD_REACTORS
330
4600
102
}
330
4600
100
AcDbXrecord
280
     1
290
     1
  0
XRECORD
  5
4603
102
{ACAD_REACTORS
330
4602
102
}
330
4602
100
AcDbXrecord
280
     1
290
     1
  0
XRECORD
  5
4605
102
{ACAD_REACTORS
330
4604
102
}
330
4604
100
AcDbXrecord
280
     1
290
     1
  0
XRECORD
  5
4607
102
{ACAD_REACTORS
330
4606
102
}
330
4606
100
AcDbXrecord
280
     1
290
     1
  0
XRECORD
  5
4609
102
{ACAD_REACTORS
330
4608
102
}
330
4608
100
AcDbXrecord
280
     1
290
     1
  0
XRECORD
  5
460B
102
{ACAD_REACTORS
330
460A
102
}
330
460A
100
AcDbXrecord
280
     1
290
     1
  0
XRECORD
  5
460D
102
{ACAD_REACTORS
330
460C
102
}
330
460C
100
AcDbXrecord
280
     1
290
     1
  0
XRECORD
  5
460F
102
{ACAD_REACTORS
330
460E
102
}
330
460E
100
AcDbXrecord
280
     1
290
     1
  0
XRECORD
  5
4611
102
{ACAD_REACTORS
330
4610
102
}
330
4610
100
AcDbXrecord
280
     1
290
     1
  0
XRECORD
  5
4613
102
{ACAD_REACTORS
330
4612
102
}
330
4612
100
AcDbXrecord
280
     1
290
     1
  0
XRECORD
  5
4615
102
{ACAD_REACTORS
330
4614
102
}
330
4614
100
AcDbXrecord
280
     1
290
     1
  0
XRECORD
  5
4617
102
{ACAD_REACTORS
330
4616
102
}
330
4616
100
AcDbXrecord
280
     1
290
     1
  0
XRECORD
  5
4619
102
{ACAD_REACTORS
330
4618
102
}
330
4618
100
AcDbXrecord
280
     1
290
     1
  0
XRECORD
  5
461B
102
{ACAD_REACTORS
330
461A
102
}
330
461A
100
AcDbXrecord
280
     1
290
     1
  0
XRECORD
  5
461D
102
{ACAD_REACTORS
330
461C
102
}
330
461C
100
AcDbXrecord
280
     1
290
     1
  0
XRECORD
  5
461F
102
{ACAD_REACTORS
330
461E
102
}
330
461E
100
AcDbXrecord
280
     1
290
     1
  0
XRECORD
  5
4621
102
{ACAD_REACTORS
330
4620
102
}
330
4620
100
AcDbXrecord
280
     1
290
     1
  0
XRECORD
  5
4623
102
{ACAD_REACTORS
330
4622
102
}
330
4622
100
AcDbXrecord
280
     1
290
     1
  0
XRECORD
  5
4625
102
{ACAD_REACTORS
330
4624
102
}
330
4624
100
AcDbXrecord
280
     1
290
     1
  0
XRECORD
  5
4627
102
{ACAD_REACTORS
330
4626
102
}
330
4626
100
AcDbXrecord
280
     1
290
     1
  0
XRECORD
  5
4629
102
{ACAD_REACTORS
330
4628
102
}
330
4628
100
AcDbXrecord
280
     1
290
     1
  0
SORTENTSTABLE
  5
3064
102
{ACAD_REACTORS
330
82
102
}
330
82
100
AcDbSortentsTable
330
1F
  0
SORTENTSTABLE
  5
4097
102
{ACAD_REACTORS
330
4096
102
}
330
4096
100
AcDbSortentsTable
330
4045
  0
SORTENTSTABLE
  5
41A3
102
{ACAD_REACTORS
330
41A2
102
}
330
41A2
100
AcDbSortentsTable
330
40A1
  0
XRECORD
  5
466A
102
{ACAD_REACTORS
330
4669
102
}
330
4669
100
AcDbXrecord
280
     1
102
SHADEPLOT
 70
     0
  0
XRECORD
  5
465E
102
{ACAD_REACTORS
330
465D
102
}
330
465D
100
AcDbXrecord
280
     1
 70
     1
  0
XRECORD
  5
4661
102
{ACAD_REACTORS
330
465D
102
}
330
465D
100
AcDbXrecord
280
     1
340
15
  0
XRECORD
  5
4662
102
{ACAD_REACTORS
330
465D
102
}
330
465D
100
AcDbXrecord
280
     1
340
15
  0
XRECORD
  5
4660
102
{ACAD_REACTORS
330
465D
102
}
330
465D
100
AcDbXrecord
280
     1
340
15
  0
XRECORD
  5
465F
102
{ACAD_REACTORS
330
465D
102
}
330
465D
100
AcDbXrecord
280
     1
1004
1800000001000000000000C0000000000000000000000000
  0
LAYOUT
  5
22
102
{ACAD_XDICTIONARY
360
4664
102
}
102
{ACAD_REACTORS
330
1A
102
}
330
1A
100
AcDbPlotSettings
  1

  2
none_device
  4
ISO_A4_(210.00_x_297.00_MM)
  6

 40
7.5
 41
20.0
 42
7.5
 43
20.0
 44
210.0
 45
297.0
 46
-112.5
 47
-20.0
 48
0.0
 49
0.0
140
0.0
141
0.0
142
1.0
143
1.0
 70
 11956
 72
     1
 73
     0
 74
     2
  7
monochrome_ULVAC.ctb
 75
    16
147
1.0
148
0.0
149
0.0
100
AcDbLayout
  1
Model
 70
     1
 71
     0
 10
0.0
 20
0.0
 11
12.0
 21
9.0
 12
0.0
 22
0.0
 32
0.0
 14
0.0
 24
0.0
 34
0.0
 15
0.0
 25
0.0
 35
0.0
146
0.0
 13
0.0
 23
0.0
 33
0.0
 16
1.0
 26
0.0
 36
0.0
 17
0.0
 27
1.0
 37
0.0
 76
     0
330
1F
331
3734
1001
ACAD_PSEXT
1000
なし
1000
なし
1000
適切ではありません
1000
新しいプロッタ環境設定名を選択しない限り、レイアウトは印刷されません。
1070
     0
  0
LAYOUT
  5
1E
102
{ACAD_XDICTIONARY
360
19A8
102
}
102
{ACAD_REACTORS
330
1A
102
}
330
1A
100
AcDbPlotSettings
  1

  2
none_device
  4
Letter_(8.50_x_11.00_Inches)
  6

 40
6.349999904632567
 41
6.349999904632567
 42
6.350006103515625
 43
6.350006103515625
 44
215.8999938964844
 45
279.3999938964844
 46
0.0
 47
0.0
 48
0.0
 49
0.0
140
0.0
141
0.0
142
1.0
143
1.0
 70
   688
 72
     1
 73
     1
 74
     5
  7
monochrome_ULVAC.ctb
 75
    16
147
1.0
148
0.0
149
0.0
100
AcDbLayout
  1
レイアウト1
 70
     1
 71
     1
 10
-6.350006103515625
 20
-6.349999904632567
 11
273.0499877929688
 21
209.5499939918518
 12
0.0
 22
0.0
 32
0.0
 14
1.000000000000000E+20
 24
1.000000000000000E+20
 34
1.000000000000000E+20
 15
-1.000000000000000E+20
 25
-1.000000000000000E+20
 35
-1.000000000000000E+20
146
0.0
 13
0.0
 23
0.0
 33
0.0
 16
1.0
 26
0.0
 36
0.0
 17
0.0
 27
1.0
 37
0.0
 76
     0
330
1B
331
19A2
  0
LAYOUT
  5
26
102
{ACAD_XDICTIONARY
360
4666
102
}
102
{ACAD_REACTORS
330
1A
102
}
330
1A
100
AcDbPlotSettings
  1

  2
none_device
  4
Letter_(8.50_x_11.00_Inches)
  6

 40
6.349999904632567
 41
6.349999904632567
 42
6.350006103515625
 43
6.350006103515625
 44
215.8999938964844
 45
279.3999938964844
 46
0.0
 47
0.0
 48
0.0
 49
0.0
140
0.0
141
0.0
142
1.0
143
1.0
 70
 15024
 72
     1
 73
     1
 74
     5
  7
monochrome_ULVAC.ctb
 75
    16
147
1.0
148
0.0
149
0.0
100
AcDbLayout
  1
レイアウト2
 70
     1
 71
     2
 10
0.0
 20
0.0
 11
12.0
 21
9.0
 12
0.0
 22
0.0
 32
0.0
 14
0.0
 24
0.0
 34
0.0
 15
0.0
 25
0.0
 35
0.0
146
0.0
 13
0.0
 23
0.0
 33
0.0
 16
1.0
 26
0.0
 36
0.0
 17
0.0
 27
1.0
 37
0.0
 76
     0
330
23
  0
MATERIAL
  5
3737
102
{ACAD_XDICTIONARY
360
4556
102
}
102
{ACAD_REACTORS
330
C4
102
}
330
C4
100
AcDbMaterial
  1
ByBlock
  0
MATERIAL
  5
3736
102
{ACAD_XDICTIONARY
360
4554
102
}
102
{ACAD_REACTORS
330
C4
102
}
330
C4
100
AcDbMaterial
  1
ByLayer
  0
MATERIAL
  5
3738
102
{ACAD_XDICTIONARY
360
4558
102
}
102
{ACAD_REACTORS
330
C4
102
}
330
C4
100
AcDbMaterial
  1
Global
  0
MLEADERSTYLE
  5
4580
102
{ACAD_REACTORS
330
457F
102
}
330
457F
100
AcDbMLeaderStyle
170
     2
171
     1
172
     0
 90
        2
 40
0.0
 41
0.0
173
     1
 91
-1056964608
340
14
 92
       -2
290
     1
 42
2.0
291
     1
 43
0.36
  3
Standard
 44
4.0
300

342
11
174
     1
178
     6
175
     1
176
     0
 93
-1056964608
 45
4.0
292
     0
297
     0
 46
4.0
 94
-1056964608
 47
1.0
 49
1.0
140
1.0
293
     1
141
0.0
294
     1
177
     0
142
1.0
295
     0
296
     0
143
0.125
1001
ACAD_MLEADERVER
1070
     2
  0
MLINESTYLE
  5
18
102
{ACAD_REACTORS
330
17
102
}
330
17
100
AcDbMlineStyle
  2
STANDARD
 70
     0
  3

 62
   256
 51
90.0
 52
90.0
 71
     2
 49
0.5
 62
   256
  6
BYLAYER
 49
-0.5
 62
   256
  6
BYLAYER
  0
PLOTSETTINGS
  5
3FFF
102
{ACAD_XDICTIONARY
360
468B
102
}
102
{ACAD_REACTORS
330
19
102
}
330
19
100
AcDbPlotSettings
  1
A1_フィット
  2
SII LP-2160
  4
User258
  6

 40
5.746749877929687
 41
5.873733520507812
 42
5.873779296875
 43
5.74676513671875
 44
593.97900390625
 45
840.9939575195313
 46
0.0
 47
2.918110934170783
 48
0.0
 49
0.0
140
0.0
141
0.0
142
1.0
143
0.5099951539933572
 70
 11956
 72
     1
 73
     1
 74
     2
  7
monochrome_ULVAC.ctb
 75
     0
147
1.96080294522372
148
0.0
149
0.0
1001
ACAD_PSEXT
1000
SII LP-2160
1000
SII LP-2165 (C2 VR)
1000
IP_192.168.12.27
1000

1070
     0
  0
PLOTSETTINGS
  5
4000
102
{ACAD_XDICTIONARY
360
468D
102
}
102
{ACAD_REACTORS
330
19
102
}
330
19
100
AcDbPlotSettings
  1
A2_フィット
  2
SII LP-2160
  4
User259
  6

 40
5.746749877929687
 41
5.873794555664062
 42
5.873748779296875
 43
5.74676513671875
 44
419.9889831542968
 45
593.97900390625
 46
0.0
 47
2.433829028197009
 48
0.0
 49
0.0
140
0.0
141
0.0
142
1.0
143
0.7272843308801679
 70
 11956
 72
     1
 73
     1
 74
     2
  7
monochrome_ULVAC.ctb
 75
     0
147
1.374978062279697
148
0.0
149
0.0
1001
ACAD_PSEXT
1000
SII LP-2160
1000
SII LP-2165 (C2 VR)
1000
IP_192.168.12.27
1000

1070
     0
  0
PLOTSETTINGS
  5
4001
102
{ACAD_XDICTIONARY
360
468F
102
}
102
{ACAD_REACTORS
330
19
102
}
330
19
100
AcDbPlotSettings
  1
A3_フィット
  2
SII LP-2160
  4
A3
  6

 40
5.746749877929687
 41
5.873733520507812
 42
5.873779296875
 43
5.746734619140625
 44
296.989501953125
 45
419.9889831542968
 46
0.0
 47
2.408216148915925
 48
0.0
 49
0.0
140
0.0
141
0.0
142
1.0
143
1.040757855026919
 70
 11956
 72
     1
 73
     1
 74
     2
  7
monochrome_ULVAC.ctb
 75
     0
147
0.9608382921828964
148
0.0
149
0.0
1001
ACAD_PSEXT
1000
SII LP-2160
1000
SII LP-2165 (C2 VR)
1000
IP_192.168.12.27
1000

1070
     0
  0
PLOTSETTINGS
  5
4002
102
{ACAD_XDICTIONARY
360
4691
102
}
102
{ACAD_REACTORS
330
19
102
}
330
19
100
AcDbPlotSettings
  1
A4_フィット_横
  2
SII LP-2160
  4
A4
  6

 40
5.746749877929687
 41
5.873764038085937
 42
5.873733520507812
 43
5.74676513671875
 44
209.9944915771484
 45
296.989501953125
 46
0.0
 47
2.420036161788772
 48
0.0
 49
0.0
140
0.0
141
0.0
142
1.0
143
1.497171946702004
 70
 11956
 72
     1
 73
     1
 74
     2
  7
monochrome_ULVAC.ctb
 75
     0
147
0.6679259534636734
148
0.0
149
0.0
1001
ACAD_PSEXT
1000
SII LP-2160
1000
SII LP-2165 (C2 VR)
1000
IP_192.168.12.27
1000

1070
     0
  0
PLOTSETTINGS
  5
4003
102
{ACAD_XDICTIONARY
360
4693
102
}
102
{ACAD_REACTORS
330
19
102
}
330
19
100
AcDbPlotSettings
  1
A4_フィット_縦
  2
SII LP-2160
  4
A4
  6

 40
5.746749877929687
 41
5.873764038085937
 42
5.873733520507812
 43
5.74676513671875
 44
209.9944915771484
 45
296.989501953125
 46
0.0
 47
72.54510492597308
 48
0.0
 49
0.0
140
0.0
141
0.0
142
1.0
143
2.117212853922025
 70
 11956
 72
     1
 73
     0
 74
     2
  7
monochrome_ULVAC.ctb
 75
     0
147
0.472319067092169
148
0.0
149
0.0
1001
ACAD_PSEXT
1000
SII LP-2160
1000
SII LP-2165 (C2 VR)
1000
IP_192.168.12.27
1000

1070
     0
  0
ACDBPLACEHOLDER
  5
F
102
{ACAD_REACTORS
330
E
102
}
330
E
  0
SCALE
  5
456E
102
{ACAD_REACTORS
330
456D
102
}
330
456D
100
AcDbScale
 70
     0
300
1:1
140
1.0
141
1.0
290
     1
  0
SCALE
  5
456F
102
{ACAD_REACTORS
330
456D
102
}
330
456D
100
AcDbScale
 70
     0
300
1:2
140
1.0
141
2.0
290
     0
  0
SCALE
  5
4570
102
{ACAD_REACTORS
330
456D
102
}
330
456D
100
AcDbScale
 70
     0
300
1:4
140
1.0
141
4.0
290
     0
  0
SCALE
  5
4571
102
{ACAD_REACTORS
330
456D
102
}
330
456D
100
AcDbScale
 70
     0
300
1:5
140
1.0
141
5.0
290
     0
  0
SCALE
  5
4572
102
{ACAD_REACTORS
330
456D
102
}
330
456D
100
AcDbScale
 70
     0
300
1:8
140
1.0
141
8.0
290
     0
  0
SCALE
  5
4573
102
{ACAD_REACTORS
330
456D
102
}
330
456D
100
AcDbScale
 70
     0
300
1:10
140
1.0
141
10.0
290
     0
  0
SCALE
  5
4574
102
{ACAD_REACTORS
330
456D
102
}
330
456D
100
AcDbScale
 70
     0
300
1:16
140
1.0
141
16.0
290
     0
  0
SCALE
  5
4575
102
{ACAD_REACTORS
330
456D
102
}
330
456D
100
AcDbScale
 70
     0
300
1:20
140
1.0
141
20.0
290
     0
  0
SCALE
  5
4576
102
{ACAD_REACTORS
330
456D
102
}
330
456D
100
AcDbScale
 70
     0
300
1:30
140
1.0
141
30.0
290
     0
  0
SCALE
  5
4577
102
{ACAD_REACTORS
330
456D
102
}
330
456D
100
AcDbScale
 70
     0
300
1:40
140
1.0
141
40.0
290
     0
  0
SCALE
  5
4578
102
{ACAD_REACTORS
330
456D
102
}
330
456D
100
AcDbScale
 70
     0
300
1:50
140
1.0
141
50.0
290
     0
  0
SCALE
  5
4579
102
{ACAD_REACTORS
330
456D
102
}
330
456D
100
AcDbScale
 70
     0
300
1:100
140
1.0
141
100.0
290
     0
  0
SCALE
  5
457A
102
{ACAD_REACTORS
330
456D
102
}
330
456D
100
AcDbScale
 70
     0
300
2:1
140
2.0
141
1.0
290
     0
  0
SCALE
  5
457B
102
{ACAD_REACTORS
330
456D
102
}
330
456D
100
AcDbScale
 70
     0
300
4:1
140
4.0
141
1.0
290
     0
  0
SCALE
  5
457C
102
{ACAD_REACTORS
330
456D
102
}
330
456D
100
AcDbScale
 70
     0
300
8:1
140
8.0
141
1.0
290
     0
  0
SCALE
  5
457D
102
{ACAD_REACTORS
330
456D
102
}
330
456D
100
AcDbScale
 70
     0
300
10:1
140
10.0
141
1.0
290
     0
  0
SCALE
  5
457E
102
{ACAD_REACTORS
330
456D
102
}
330
456D
100
AcDbScale
 70
     0
300
100:1
140
100.0
141
1.0
290
     0
  0
TABLESTYLE
  5
122
102
{ACAD_XDICTIONARY
360
4659
102
}
102
{ACAD_REACTORS
330
121
102
}
330
121
100
AcDbTableStyle
  3
Standard
 70
     0
 71
     0
 40
1.5
 41
1.5
280
     0
281
     0
  7
STANDARD
140
4.5
170
     2
 62
     0
 63
     7
283
     0
274
    -2
284
     1
 64
     0
275
    -2
285
     1
 65
     0
276
    -2
286
     1
 66
     0
277
    -2
287
     1
 67
     0
278
    -2
288
     1
 68
     0
279
    -2
289
     1
 69
     0
  7
STANDARD
140
6.0
170
     5
 62
     0
 63
     7
283
     0
274
    -2
284
     1
 64
     0
275
    -2
285
     1
 65
     0
276
    -2
286
     1
 66
     0
277
    -2
287
     1
 67
     0
278
    -2
288
     1
 68
     0
279
    -2
289
     1
 69
     0
  7
STANDARD
140
4.5
170
     5
 62
     0
 63
     7
283
     0
274
    -2
284
     1
 64
     0
275
    -2
285
     1
 65
     0
276
    -2
286
     1
 66
     0
277
    -2
287
     1
 67
     0
278
    -2
288
     1
 68
     0
279
    -2
289
     1
 69
     0
  0
VISUALSTYLE
  5
373F
102
{ACAD_XDICTIONARY
360
4675
102
}
102
{ACAD_REACTORS
330
3739
102
}
330
3739
100
AcDbVisualStyle
  2

 70
     4
 71
     0
 72
     2
 73
     0
 90
        0
 40
-0.6
 41
-30.0
 62
     5
 63
     7
 74
     1
 91
        4
 64
     7
 65
   257
 75
     1
175
     1
 42
1.0
 92
        0
 66
   257
 43
1.0
 76
     1
 77
     6
 78
     2
 67
     7
 79
     5
170
     0
171
     0
290
     0
174
     0
 93
        1
 44
0.0
173
     0
291
     0
 45
0.0
1001
ACAD
1000
AcDbSavedByObjectVersion
1070
     0
  0
VISUALSTYLE
  5
3741
102
{ACAD_XDICTIONARY
360
4679
102
}
102
{ACAD_REACTORS
330
3739
102
}
330
3739
100
AcDbVisualStyle
  2

 70
     6
 71
     1
 72
     2
 73
     2
 90
        0
 40
-0.6
 41
-30.0
 62
     5
 63
     7
 74
     2
 91
        2
 64
     7
 65
   257
 75
     2
175
     1
 42
40.0
 92
        0
 66
   257
 43
1.0
 76
     1
 77
     6
 78
     2
 67
     7
 79
     3
170
     0
171
     0
290
     0
174
     0
 93
        1
 44
0.0
173
     0
291
     0
 45
0.0
1001
ACAD
1000
AcDbSavedByObjectVersion
1070
     0
  0
VISUALSTYLE
  5
3740
102
{ACAD_XDICTIONARY
360
4677
102
}
102
{ACAD_REACTORS
330
3739
102
}
330
3739
100
AcDbVisualStyle
  2

 70
     5
 71
     0
 72
     2
 73
     0
 90
        0
 40
-0.6
 41
-30.0
 62
     5
 63
     7
 74
     1
 91
        4
 64
     7
 65
   257
 75
     1
175
     1
 42
1.0
 92
        0
 66
   257
 43
1.0
 76
     1
 77
     6
 78
     2
 67
     7
 79
     5
170
     0
171
     0
290
     0
174
     0
 93
        1
 44
0.0
173
     0
291
     0
 45
0.0
1001
ACAD
1000
AcDbSavedByObjectVersion
1070
     0
  0
VISUALSTYLE
  5
373E
102
{ACAD_XDICTIONARY
360
4673
102
}
102
{ACAD_REACTORS
330
3739
102
}
330
3739
100
AcDbVisualStyle
  2

 70
     7
 71
     1
 72
     0
 73
     1
 90
        0
 40
-0.6
 41
-30.0
 62
     5
 63
     7
 74
     0
 91
        4
 64
     7
 65
   257
 75
     1
175
     1
 42
1.0
 92
        8
 66
     7
 43
1.0
 76
     1
 77
     6
 78
     2
 67
     7
 79
     5
170
     0
171
     0
290
     0
174
     0
 93
        1
 44
0.0
173
     0
291
     1
 45
0.0
1001
ACAD
1000
AcDbSavedByObjectVersion
1070
     0
  0
VISUALSTYLE
  5
3745
102
{ACAD_XDICTIONARY
360
4681
102
}
102
{ACAD_REACTORS
330
3739
102
}
330
3739
100
AcDbVisualStyle
  2

 70
    12
 71
     2
 72
     2
 73
     0
 90
        0
 40
-0.6
 41
-30.0
 62
     5
 63
     7
 74
     1
 91
        4
 64
     7
 65
   257
 75
     1
175
     1
 42
1.0
 92
        8
 66
     7
 43
1.0
 76
     1
 77
     6
 78
     2
 67
     7
 79
     5
170
     0
171
     0
290
     0
174
     0
 93
        1
 44
50.0
173
     0
291
     1
 45
0.0
1001
ACAD
1000
AcDbSavedByObjectVersion
1070
     0
  0
VISUALSTYLE
  5
3749
102
{ACAD_XDICTIONARY
360
4689
102
}
102
{ACAD_REACTORS
330
3739
102
}
330
3739
100
AcDbVisualStyle
  2

 70
    16
 71
     2
 72
     2
 73
     3
 90
        0
 40
-0.6
 41
-30.0
 62
     5
 63
     8
 74
     1
 91
        4
 64
     7
 65
   257
 75
     1
175
     1
 42
1.0
 92
        8
 66
     8
 43
1.0
 76
     1
 77
     6
 78
     2
 67
     7
 79
     5
170
     0
171
     0
290
     0
174
     0
 93
        1
 44
0.0
173
     0
291
     1
 45
0.0
1001
ACAD
1000
AcDbSavedByObjectVersion
1070
     0
  0
VISUALSTYLE
  5
3742
102
{ACAD_XDICTIONARY
360
467B
102
}
102
{ACAD_REACTORS
330
3739
102
}
330
3739
100
AcDbVisualStyle
  2

 70
     9
 71
     3
 72
     2
 73
     0
 90
        0
 40
-0.6
 41
-30.0
 62
     5
 63
     7
 74
     2
 91
        2
 64
     7
 65
   257
 75
     1
175
     1
 42
40.0
 92
        8
 66
     7
 43
1.0
 76
     1
 77
     6
 78
     2
 67
     7
 79
     3
170
     0
171
     0
290
     0
174
     0
 93
        1
 44
0.0
173
     0
291
     0
 45
0.0
1001
ACAD
1000
AcDbSavedByObjectVersion
1070
     0
  0
VISUALSTYLE
  5
3744
102
{ACAD_XDICTIONARY
360
467F
102
}
102
{ACAD_REACTORS
330
3739
102
}
330
3739
100
AcDbVisualStyle
  2

 70
    11
 71
     2
 72
     2
 73
     0
 90
        0
 40
-0.6
 41
-30.0
 62
     5
 63
     7
 74
     1
 91
        4
 64
     7
 65
   257
 75
     1
175
     1
 42
1.0
 92
        8
 66
     7
 43
1.0
 76
     1
 77
     6
 78
     2
 67
     7
 79
     5
170
     0
171
     0
290
     0
174
     0
 93
        1
 44
-50.0
173
     0
291
     1
 45
0.0
1001
ACAD
1000
AcDbSavedByObjectVersion
1070
     0
  0
VISUALSTYLE
  5
456C
102
{ACAD_XDICTIONARY
360
4699
102
}
102
{ACAD_REACTORS
330
3739
102
}
330
3739
100
AcDbVisualStyle
  2
EdgeColorOff
 70
    22
 71
     2
 72
     2
 73
     0
 90
        0
 40
-0.6
 41
-30.0
 62
     5
 63
     7
 74
     1
 91
        4
 64
     7
 65
   257
 75
     1
175
     1
 42
1.0
 92
        8
 66
     7
 43
1.0
 76
     1
 77
     6
 78
     2
 67
     7
 79
     5
170
     0
171
     0
290
     0
174
     0
 93
        1
 44
0.0
173
     0
291
     1
 45
0.0
1001
ACAD
1000
AcDbSavedByObjectVersion
1070
     0
  0
VISUALSTYLE
  5
3748
102
{ACAD_XDICTIONARY
360
4687
102
}
102
{ACAD_REACTORS
330
3739
102
}
330
3739
100
AcDbVisualStyle
  2

 70
    15
 71
     2
 72
     2
 73
     0
 90
        0
 40
-0.6
 41
-30.0
 62
     5
 63
     7
 74
     1
 91
        4
 64
     7
 65
   257
 75
     1
175
     1
 42
1.0
 92
        8
 66
     7
 43
1.0
 76
     1
 77
     6
 78
     2
 67
     7
 79
     5
170
     0
171
     0
290
     0
174
     0
 93
        1
 44
0.0
173
     0
291
     1
 45
0.0
1001
ACAD
1000
AcDbSavedByObjectVersion
1070
     0
  0
VISUALSTYLE
  5
373A
102
{ACAD_XDICTIONARY
360
466B
102
}
102
{ACAD_REACTORS
330
3739
102
}
330
3739
100
AcDbVisualStyle
  2

 70
     0
 71
     2
 72
     1
 73
     1
 90
        2
 40
-0.6
 41
30.0
 62
     5
 63
     7
 74
     0
 91
        4
 64
     7
 65
   257
 75
     1
175
     1
 42
1.0
 92
        8
 66
     7
 43
1.0
 76
     1
 77
     6
 78
     2
 67
     7
 79
     5
170
     0
171
     0
290
     0
174
     0
 93
       13
 44
0.0
173
     0
291
     1
 45
0.0
1001
ACAD
1000
AcDbSavedByObjectVersion
1070
     0
  0
VISUALSTYLE
  5
373B
102
{ACAD_XDICTIONARY
360
466D
102
}
102
{ACAD_REACTORS
330
3739
102
}
330
3739
100
AcDbVisualStyle
  2

 70
     1
 71
     2
 72
     1
 73
     1
 90
        2
 40
-0.6
 41
30.0
 62
     5
 63
     7
 74
     1
 91
        4
 64
     7
 65
   257
 75
     1
175
     1
 42
1.0
 92
        0
 66
   257
 43
1.0
 76
     1
 77
     6
 78
     2
 67
     7
 79
     5
170
     0
171
     0
290
     0
174
     0
 93
       13
 44
0.0
173
     0
291
     1
 45
0.0
1001
ACAD
1000
AcDbSavedByObjectVersion
1070
     0
  0
VISUALSTYLE
  5
373C
102
{ACAD_XDICTIONARY
360
466F
102
}
102
{ACAD_REACTORS
330
3739
102
}
330
3739
100
AcDbVisualStyle
  2

 70
     2
 71
     2
 72
     2
 73
     1
 90
        2
 40
-0.6
 41
30.0
 62
     5
 63
     7
 74
     0
 91
        4
 64
     7
 65
   257
 75
     1
175
     1
 42
1.0
 92
        0
 66
     7
 43
1.0
 76
     1
 77
     6
 78
     2
 67
     7
 79
     5
170
     0
171
     0
290
     0
174
     0
 93
       13
 44
0.0
173
     0
291
     1
 45
0.0
1001
ACAD
1000
AcDbSavedByObjectVersion
1070
     0
  0
VISUALSTYLE
  5
373D
102
{ACAD_XDICTIONARY
360
4671
102
}
102
{ACAD_REACTORS
330
3739
102
}
330
3739
100
AcDbVisualStyle
  2

 70
     3
 71
     2
 72
     2
 73
     1
 90
        2
 40
-0.6
 41
30.0
 62
     5
 63
     7
 74
     1
 91
        4
 64
     7
 65
   257
 75
     1
175
     1
 42
1.0
 92
        0
 66
   257
 43
1.0
 76
     1
 77
     6
 78
     2
 67
     7
 79
     5
170
     0
171
     0
290
     0
174
     0
 93
       13
 44
0.0
173
     0
291
     1
 45
0.0
1001
ACAD
1000
AcDbSavedByObjectVersion
1070
     0
  0
VISUALSTYLE
  5
456A
102
{ACAD_XDICTIONARY
360
4695
102
}
102
{ACAD_REACTORS
330
3739
102
}
330
3739
100
AcDbVisualStyle
  2
JitterOff
 70
    20
 71
     2
 72
     2
 73
     0
 90
        0
 40
-0.6
 41
-30.0
 62
     5
 63
     7
 74
     1
 91
        4
 64
     7
 65
   257
 75
     1
175
     1
 42
1.0
 92
       10
 66
     7
 43
1.0
 76
     1
 77
     6
 78
     2
 67
     7
 79
     5
170
     0
171
     0
290
     0
174
     0
 93
        1
 44
0.0
173
     0
291
     1
 45
0.0
1001
ACAD
1000
AcDbSavedByObjectVersion
1070
     0
  0
VISUALSTYLE
  5
3747
102
{ACAD_XDICTIONARY
360
4685
102
}
102
{ACAD_REACTORS
330
3739
102
}
330
3739
100
AcDbVisualStyle
  2

 70
    14
 71
     2
 72
     2
 73
     0
 90
        0
 40
-0.6
 41
-30.0
 62
     5
 63
     7
 74
     1
 91
        4
 64
     7
 65
   257
 75
     7
175
     7
 42
1.0
 92
        8
 66
     7
 43
1.0
 76
     1
 77
     6
 78
     2
 67
     7
 79
     5
170
     0
171
     0
290
     0
174
     0
 93
        1
 44
0.0
173
     0
291
     1
 45
0.0
1001
ACAD
1000
AcDbSavedByObjectVersion
1070
     0
  0
VISUALSTYLE
  5
456B
102
{ACAD_XDICTIONARY
360
4697
102
}
102
{ACAD_REACTORS
330
3739
102
}
330
3739
100
AcDbVisualStyle
  2
OverhangOff
 70
    21
 71
     2
 72
     2
 73
     0
 90
        0
 40
-0.6
 41
-30.0
 62
     5
 63
     7
 74
     1
 91
        4
 64
     7
 65
   257
 75
     1
175
     1
 42
1.0
 92
        9
 66
     7
 43
1.0
 76
     1
 77
     6
 78
     2
 67
     7
 79
     5
170
     0
171
     0
290
     0
174
     0
 93
        1
 44
0.0
173
     0
291
     1
 45
0.0
1001
ACAD
1000
AcDbSavedByObjectVersion
1070
     0
  0
VISUALSTYLE
  5
3743
102
{ACAD_XDICTIONARY
360
467D
102
}
102
{ACAD_REACTORS
330
3739
102
}
330
3739
100
AcDbVisualStyle
  2

 70
     8
 71
     2
 72
     2
 73
     0
 90
        0
 40
-0.6
 41
-30.0
 62
     5
 63
     7
 74
     1
 91
        0
 64
     7
 65
   257
 75
     1
175
     1
 42
1.0
 92
        8
 66
     8
 43
1.0
 76
     1
 77
     6
 78
     2
 67
     7
 79
     5
170
     0
171
     0
290
     0
174
     0
 93
       13
 44
0.0
173
     0
291
     0
 45
0.0
1001
ACAD
1000
AcDbSavedByObjectVersion
1070
     0
  0
VISUALSTYLE
  5
3746
102
{ACAD_XDICTIONARY
360
4683
102
}
102
{ACAD_REACTORS
330
3739
102
}
330
3739
100
AcDbVisualStyle
  2

 70
    13
 71
     2
 72
     2
 73
     0
 90
        0
 40
-0.6
 41
-30.0
 62
     5
 63
     7
 74
     1
 91
        4
 64
     7
 65
   257
 75
     1
175
     1
 42
1.0
 92
       12
 66
     7
 43
1.0
 76
     1
 77
     6
 78
     2
 67
     7
 79
     5
170
     0
171
     0
290
     0
174
     0
 93
        1
 44
0.0
173
     0
291
     1
 45
0.0
1001
ACAD
1000
AcDbSavedByObjectVersion
1070
     0
  0
DICTIONARYVAR
  5
4635
102
{ACAD_REACTORS
330
34
102
}
330
34
100
DictionaryVariables
280
     0
  1
1:1
  0
DICTIONARYVAR
  5
4633
102
{ACAD_REACTORS
330
34
102
}
330
34
100
DictionaryVariables
280
     0
  1
STANDARD
  0
DICTIONARYVAR
  5
140
102
{ACAD_REACTORS
330
34
102
}
330
34
100
DictionaryVariables
280
     0
  1
STANDARD
  0
DICTIONARYVAR
  5
AC
102
{ACAD_REACTORS
330
34
102
}
330
34
100
DictionaryVariables
280
     0
  1
2
  0
DICTIONARYVAR
  5
35
102
{ACAD_REACTORS
330
34
102
}
330
34
100
DictionaryVariables
280
     0
  1
0
  0
DICTIONARYVAR
  5
4637
102
{ACAD_REACTORS
330
34
102
}
330
34
100
DictionaryVariables
280
     0
  1
1
  0
DICTIONARYVAR
  5
4638
102
{ACAD_REACTORS
330
34
102
}
330
34
100
DictionaryVariables
280
     0
  1
15
  0
DICTIONARYVAR
  5
4636
102
{ACAD_REACTORS
330
34
102
}
330
34
100
DictionaryVariables
280
     0
  1
0
  0
DICTIONARYVAR
  5
4634
102
{ACAD_REACTORS
330
34
102
}
330
34
100
DictionaryVariables
280
     0
  1
0
  0
DICTIONARYVAR
  5
4540
102
{ACAD_REACTORS
330
34
102
}
330
34
100
DictionaryVariables
280
     0
  1
127
  0
DICTIONARYVAR
  5
4658
102
{ACAD_REACTORS
330
34
102
}
330
34
100
DictionaryVariables
280
     0
  1
2
  0
DICTIONARY
  5
1C1
102
{ACAD_REACTORS
330
49
102
}
330
49
100
AcDbDictionary
281
     1
  0
DICTIONARY
  5
4A
102
{ACAD_REACTORS
330
49
102
}
330
49
100
AcDbDictionary
281
     1
  0
XRECORD
  5
12B
102
{ACAD_REACTORS
330
49
102
}
330
49
100
AcDbXrecord
280
     1
 90
-1023410169
  0
XRECORD
  5
3711
102
{ACAD_REACTORS
330
3710
102
}
330
3710
100
AcDbXrecord
280
     1
  0
DICTIONARY
  5
4664
330
22
100
AcDbDictionary
280
     1
281
     1
  3
ACAD_XREC_ROUNDTRIP
360
4665
  0
DICTIONARY
  5
19A8
330
1E
100
AcDbDictionary
280
     1
281
     1
  3
ACAD_XREC_ROUNDTRIP
360
4663
  3
ADSK_XREC_LAYOUTTHUMBNAIL
360
19A9
  0
DICTIONARY
  5
4666
330
26
100
AcDbDictionary
280
     1
281
     1
  3
ACAD_XREC_ROUNDTRIP
360
4667
  0
DICTIONARY
  5
4556
330
3737
100
AcDbDictionary
280
     1
281
     1
  3
ACAD_XREC_ROUNDTRIP
360
4557
  0
DICTIONARY
  5
4554
330
3736
100
AcDbDictionary
280
     1
281
     1
  3
ACAD_XREC_ROUNDTRIP
360
4555
  0
DICTIONARY
  5
4558
330
3738
100
AcDbDictionary
280
     1
281
     1
  3
ACAD_XREC_ROUNDTRIP
360
4559
  0
DICTIONARY
  5
468B
330
3FFF
100
AcDbDictionary
280
     1
281
     1
  3
ACAD_XREC_ROUNDTRIP
360
468C
  0
DICTIONARY
  5
468D
330
4000
100
AcDbDictionary
280
     1
281
     1
  3
ACAD_XREC_ROUNDTRIP
360
468E
  0
DICTIONARY
  5
468F
330
4001
100
AcDbDictionary
280
     1
281
     1
  3
ACAD_XREC_ROUNDTRIP
360
4690
  0
DICTIONARY
  5
4691
330
4002
100
AcDbDictionary
280
     1
281
     1
  3
ACAD_XREC_ROUNDTRIP
360
4692
  0
DICTIONARY
  5
4693
330
4003
100
AcDbDictionary
280
     1
281
     1
  3
ACAD_XREC_ROUNDTRIP
360
4694
  0
DICTIONARY
  5
4659
330
122
100
AcDbDictionary
280
     1
281
     1
  3
ACAD_ROUNDTRIP_2008_TABLESTYLE_CELLSTYLEMAP
360
465A
  3
ACAD_XREC_ROUNDTRIP
360
4668
  0
DICTIONARY
  5
4675
330
373F
100
AcDbDictionary
280
     1
281
     1
  3
ACAD_XREC_ROUNDTRIP
360
4676
  0
DICTIONARY
  5
4679
330
3741
100
AcDbDictionary
280
     1
281
     1
  3
ACAD_XREC_ROUNDTRIP
360
467A
  0
DICTIONARY
  5
4677
330
3740
100
AcDbDictionary
280
     1
281
     1
  3
ACAD_XREC_ROUNDTRIP
360
4678
  0
DICTIONARY
  5
4673
330
373E
100
AcDbDictionary
280
     1
281
     1
  3
ACAD_XREC_ROUNDTRIP
360
4674
  0
DICTIONARY
  5
4681
330
3745
100
AcDbDictionary
280
     1
281
     1
  3
ACAD_XREC_ROUNDTRIP
360
4682
  0
DICTIONARY
  5
4689
330
3749
100
AcDbDictionary
280
     1
281
     1
  3
ACAD_XREC_ROUNDTRIP
360
468A
  0
DICTIONARY
  5
467B
330
3742
100
AcDbDictionary
280
     1
281
     1
  3
ACAD_XREC_ROUNDTRIP
360
467C
  0
DICTIONARY
  5
467F
330
3744
100
AcDbDictionary
280
     1
281
     1
  3
ACAD_XREC_ROUNDTRIP
360
4680
  0
DICTIONARY
  5
4699
330
456C
100
AcDbDictionary
280
     1
281
     1
  3
ACAD_XREC_ROUNDTRIP
360
469A
  0
DICTIONARY
  5
4687
330
3748
100
AcDbDictionary
280
     1
281
     1
  3
ACAD_XREC_ROUNDTRIP
360
4688
  0
DICTIONARY
  5
466B
330
373A
100
AcDbDictionary
280
     1
281
     1
  3
ACAD_XREC_ROUNDTRIP
360
466C
  0
DICTIONARY
  5
466D
330
373B
100
AcDbDictionary
280
     1
281
     1
  3
ACAD_XREC_ROUNDTRIP
360
466E
  0
DICTIONARY
  5
466F
330
373C
100
AcDbDictionary
280
     1
281
     1
  3
ACAD_XREC_ROUNDTRIP
360
4670
  0
DICTIONARY
  5
4671
330
373D
100
AcDbDictionary
280
     1
281
     1
  3
ACAD_XREC_ROUNDTRIP
360
4672
  0
DICTIONARY
  5
4695
330
456A
100
AcDbDictionary
280
     1
281
     1
  3
ACAD_XREC_ROUNDTRIP
360
4696
  0
DICTIONARY
  5
4685
330
3747
100
AcDbDictionary
280
     1
281
     1
  3
ACAD_XREC_ROUNDTRIP
360
4686
  0
DICTIONARY
  5
4697
330
456B
100
AcDbDictionary
280
     1
281
     1
  3
ACAD_XREC_ROUNDTRIP
360
4698
  0
DICTIONARY
  5
467D
330
3743
100
AcDbDictionary
280
     1
281
     1
  3
ACAD_XREC_ROUNDTRIP
360
467E
  0
DICTIONARY
  5
4683
330
3746
100
AcDbDictionary
280
     1
281
     1
  3
ACAD_XREC_ROUNDTRIP
360
4684
  0
XRECORD
  5
4665
102
{ACAD_REACTORS
330
4664
102
}
330
4664
100
AcDbXrecord
280
     1
102
SHADEPLOT
 70
     0
102
SHADEPLOTRESLEVEL
 70
     2
102
SHADEPLOTCUSTOMDPI
 70
   300
  0
XRECORD
  5
4663
102
{ACAD_REACTORS
330
19A8
102
}
330
19A8
100
AcDbXrecord
280
     1
102
SHADEPLOT
 70
     0
102
SHADEPLOTRESLEVEL
 70
     2
102
SHADEPLOTCUSTOMDPI
 70
   300
  0
XRECORD
  5
19A9
102
{ACAD_REACTORS
330
19A8
102
}
330
19A8
100
AcDbXrecord
280
     1
310
28000000B40000008B0000000100080000000000BC61000000000000000000000001000000000000FFFFFF0000000000FFFFFF000000000000000000000000000000000000000000000000000000000000000000330000006600000099000000CC000000FF00000000330000333300006633000099330000CC330000FF3300
310
0000660000336600006666000099660000CC660000FF66000000990000339900006699000099990000CC990000FF99000000CC000033CC000066CC000099CC0000CCCC0000FFCC000000FF000033FF000066FF000099FF0000CCFF0000FFFF000000003300330033006600330099003300CC003300FF003300003333003333
310
33006633330099333300CC333300FF33330000663300336633006666330099663300CC663300FF66330000993300339933006699330099993300CC993300FF99330000CC330033CC330066CC330099CC3300CCCC3300FFCC330000FF330033FF330066FF330099FF3300CCFF3300FFFF330000006600330066006600660099
310
006600CC006600FF00660000336600333366006633660099336600CC336600FF33660000666600336666006666660099666600CC666600FF66660000996600339966006699660099996600CC996600FF99660000CC660033CC660066CC660099CC6600CCCC6600FFCC660000FF660033FF660066FF660099FF6600CCFF6600
310
FFFF660000009900330099006600990099009900CC009900FF00990000339900333399006633990099339900CC339900FF33990000669900336699006666990099669900CC669900FF66990000999900339999006699990099999900CC999900FF99990000CC990033CC990066CC990099CC9900CCCC9900FFCC990000FF99
310
0033FF990066FF990099FF9900CCFF9900FFFF99000000CC003300CC006600CC009900CC00CC00CC00FF00CC000033CC003333CC006633CC009933CC00CC33CC00FF33CC000066CC003366CC006666CC009966CC00CC66CC00FF66CC000099CC003399CC006699CC009999CC00CC99CC00FF99CC0000CCCC0033CCCC0066CC
310
CC0099CCCC00CCCCCC00FFCCCC0000FFCC0033FFCC0066FFCC0099FFCC00CCFFCC00FFFFCC000000FF003300FF006600FF009900FF00CC00FF00FF00FF000033FF003333FF006633FF009933FF00CC33FF00FF33FF000066FF003366FF006666FF009966FF00CC66FF00FF66FF000099FF003399FF006699FF009999FF00CC
310
99FF00FF99FF0000CCFF0033CCFF0066CCFF0099CCFF00CCCCFF00FFCCFF0000FFFF0033FFFF0066FFFF0099FFFF00CCFFFF00FFFFFF00000000000D0D0D001A1A1A00282828003535350043434300505050005D5D5D006B6B6B00787878008686860093939300A1A1A100AEAEAE00BBBBBB00C9C9C900D6D6D600E4E4E400
310
F1F1F100FFFFFF0000000000000000000000000000000000000000000000000000000000000000000000000000000000E2E2E2E2E2E2E2E2E2E2E2E2E2E2E2E2E2E2E2E2E2E2E2E2E2E2E2E2E2E2E2E2E2E2E2E2E2E2E2E2E2E2E2E2E2E2E2E2E2E2E2E2E2E2E2E2E2E2E2E2E2E2E2E2E2E2E2E2E2E2E2E2E2E2E2E2E2E2E2
310
E2E2E2E2E2E2E2E2E2E2E2E2E2E2E2E2E2E2E2E2E2E2E2E2E2E2E2E2E2E2E2E2E2E2E2E2E2E2E2E2E2E2E2E2E2E2E2E2E2E2E2E2E2E2E2E2E2E2E2E2E2E2E2E2E2E2E2E2E2E2E2E2E2E2E2E2E2E2E2E2E2E2E2E2E2E2E2E2E2E2E2E2E2E2E2E2E2E2E2E2E2E2F5F5F5F5F5F5F5F5F5F5F5F5F5F5F5F5F5F5F5F5F5F5F5F5F5
310
F5F5F5F5F5F5F5F5F5F5F5F5F5F5F5F5F5F5F5F5F5F5F5F5F5F5F5F5F5F5F5F5F5F5F5F5F5F5F5F5F5F5F5F5F5F5F5F5F5F5F5F5F5F5F5F5F5F5F5F5F5F5F5F5F5F5F5F5F5F5F5F5F5F5F5F5F5F5F5F5F5F5F5F5F5F5F5F5F5F5F5F5F5F5F5F5F5F5F5F5F5F5F5F5F5F5F5F5F5F5F5F5F5F5F5F5F5F5F5F5F5F5F5F5F5F5F5
310
F5F5F5F5F5F5F5F5F5F5F5F5F5F5F5F5F5F5F5F5F5F5F5F5F5E2E2E2F5F5F5F5F5F5F5F5F5F5F5F5F5F5F5F5F5F5F5F5F5F5F5F5F5F5F5F5F5F5F5F5F5F5F5F5F5F5F5F5F5F5F5F5F5F5F5F5F5F5F5F5F5F5F5F5F5F5F5F5F5F5F5F5F5F5F5F5F5F5F5F5F5F5F5F5F5F5F5F5F5F5F5F5F5F5F5F5F5F5F5F5F5F5F5F5F5F5F5
310
F5F5F5F5F5F5F5F5F5F5F5F5F5F5F5F5F5F5F5F5F5F5F5F5F5F5F5F5F5F5F5F5F5F5F5F5F5F5F5F5F5F5F5F5F5F5F5F5F5F5F5F5F5F5F5F5F5F5F5F5F5F5F5F5F5F5F5F5F5F5F5F5F5F5F5F5F5F5E2E2E2F5F5F5F5F5F5F5F5F5F5F5F5F5F5F5F5F5F5F5F5F5F5F5F5F5F5F5F5F5F5F5F5F5F5F5F5F5F5F5F5F5F5F5F5F5F5
310
F5F5F5F5F5F5F5F5F5F5F5F5F5F5F5F5F5F5F5F5F5F5F5F5F5F5F5F5F5F5F5F5F5F5F5F5F5F5F5F5F5F5F5F5F5F5F5F5F5F5F5F5F5F5F5F5F5F5F5F5F5F5F5F5F5F5F5F5F5F5F5F5F5F5F5F5F5F5F5F5F5F5F5F5F5F5F5F5F5F5F5F5F5F5F5F5F5F5F5F5F5F5F5F5F5F5F5F5F5F5F5F5F5F5F5F5F5F5F5F5F5F5F5F5F5F5F5
310
F5F5F5F5E2E2E2F5F5F5F5F5F5F5F5F5F5F5F5F5F5F5F5F5F5F5F5F5F5F5F5F5F5F5F5F5F5F5F5F5F5F5F5F5F5F5F5F5F5F5F5F5F5F5F5F5F5F5F5F5F5F5F5F5F5F5F5F5F5F5F5F5F5F5F5F5F5F5F5F5F5F5F5F5F5F5F5F5F5F5F5F5F5F5F5F5F5F5F5F5F5F5F5F5F5F5F5F5F5F5F5F5F5F5F5F5F5F5F5F5F5F5F5F5F5F5F5
310
F5F5F5F5F5F5F5F5F5F5F5F5F5F5F5F5F5F5F5F5F5F5F5F5F5F5F5F5F5F5F5F5F5F5F5F5F5F5F5F5F5F5F5F5F5F5F5F5F5F5F5F5F5F5F5F5F5E2E2E2F5F5F5E2E2E2E2E2E2E2E2F5F5F5F5F5F5F5F5F5E2E2E2E2E2E2E2E2E2E2E2E2E2E2E2E2F5F5F5F5F5F5F5F5E2E2E2E2E2E2E2E2E2E2E2E2E2E2E2E2F5F5F5F5F5F5F5
310
F5F5E2E2E2E2E2E2E2E2E2E2E2E2E2E2E2F5F5F5F5F5F5F5F5F5E2E2E2E2E2E2E2E2E2E2E2E2E2E2E2F5F5F5F5F5F5F5F5F5E2E2E2E2E2E2E2E2E2E2E2E2E2E2E2E2F5F5F5F5F5F5F5F5E2E2E2E2E2E2E2E2E2E2E2E2E2E2E2E2F5F5F5F5F5F5F5F5F5E2E2E2E2E2E2E2E2F5F5F5E2E2E2F5F5F5E2F5F5F5F5F5F5F5F5F5F5
310
F5F5F5F5F5F5F5F5F5F5F5F5F5F5F5F5F5F5F5F5F5F5F5F5F5F5F5F5F5F5F5F5F5F5F5F5F5F5F5F5F5F5F5F5F5F5F5F5F5F5F5F5F5F5F5F5F5F5F5F5F5F5F5F5F5F5F5F5F5F5F5F5F5F5F5F5F5F5F5F5F5F5F5F5F5F5F5F5F5F5F5F5F5F5F5F5F5F5F5F5F5F5F5F5F5F5F5F5F5F5F5F5F5F5F5F5F5F5F5F5F5F5F5F5F5F5F5
310
F5F5F5F5F5F5F5F5F5F5F5F5F5F5F5F5F5F5F5F5F5F5F5F5F5F5F5F5F5F5F5F5E2F5F5F5E2E2E2F5F5F5E2F5F5F5F5F5F5F5F5F5F5F5F5F5F5F5F5F5F5F5F5F5F5F5F5F5F5F5F5F5F5F5F5F5F5F5F5F5F5F5F5F5F5F5F5F5F5F5F5F5F5F5F5F5F5F5F5F5F5F5F5F5F5F5F5F5F5F5F5F5F5F5F5F5F5F5F5F5F5F5F5F5F5F5F5
310
F5F5F5F5F5F5F5F5F5F5F5F5F5F5F5F5F5F5F5F5F5F5F5F5F5F5F5F5F5F5F5F5F5F5F5F5F5F5F5F5F5F5F5F5F5F5F5F5F5F5F5F5F5F5F5F5F5F5F5F5F5F5F5F5F5F5F5F5F5F5F5F5F5F5F5F5F5F5F5F5F5F5F5F5F5E2F5F5F5E2E2E2F5F5F5E2F5F5F5F5F5F5F5F5F5F5F5F5F5F5F5F5F5F5F5F5F5F5F5F5F5F5F5F5F5F5F5
310
F5F5F5F5F5F5F5F5F5F5F5F5F5F5F5F5F5F5F5F5F5F5F5F5F5F5F5F5F5F5F5F5F5F5F5F5F5F5F5F5F5F5F5F5F5F5F5F5F5F5F5F5F5F5F5F5F5F5F5F5F5F5F5F5F5F5F5F5F5F5F5F5F5F5F5F5F5F5F5F5F5F5F5F5F5F5F5F5F5F5F5F5F5F5F5F5F5F5F5F5F5F5F5F5F5F5F5F5F5F5F5F5F5F5F5F5F5F5F5F5F5F5F5F5F5F5F5
310
F5F5F5F5F5F5F5F5F5F5F5E2F5F5F5E2E2E2F5F5F5E2F5F5F5F5F5F5F5F5F5F5F5F5F5F5F5F5F5F5F5F5F5F5F5F5F5F5F5F5F5F5F5F5F5F5F5F5F5F5F5F5F5F5F5F5F5F5F5F5F5F5F5F5F5F5F5F5F5F5F5F5F5F5F5F5F5F5F5F5F5F5F5F5F5F5F5F5F5F5F5F5F5F5F5F5F5F5F5F5F5F5F5F5F5F5F5F5F5F5F5F5F5F5F5F5F5
310
F5F5F5F5F5F5F5F5F5F5F5F5F5F5F5F5F5F5F5F5F5F5F5F5F5F5F5F5F5F5F5F5F5F5F5F5F5F5F5F5F5F5F5F5F5F5F5F5F5F5F5F5F5F5F5F5F5F5F5F5F5F5F5F5E2F5F5F5E2E2E2F5F5F5E2F5F5F5F5F5F5F5F5F5F5F5F5F5F5F5F5F5F5F5F5F5F5F5F5F5F5F5F5F5F5F5F5F5F5F5F5F5F5F5F5F5F5F5F5F5F5F5F5F5F5F5F5
310
F5F5F5F5F5F5F5F5F5F5F5F5F5F5F5F5F5F5F5F5F5F5F5F5F5F5F5F5F5F5F5F5F5F5F5F5F5F5F5F5F5F5F5F5F5F5F5F5F5F5F5F5F5F5F5F5F5F5F5F5F5F5F5F5F5F5F5F5F5F5F5F5F5F5F5F5F5F5F5F5F5F5F5F5F5F5F5F5F5F5F5F5F5F5F5F5F5F5F5F5F5F5F5F5F5F5F5F5F5F5F5F5F5F5F5F5F5E2F5F5F5E2E2E2F5F5F5
310
E2F5F5F5F5F5F5F5F5F5F5F5F5F5F5F5F5F5F5F5F5F5F5F5F5F5F5F5F5F5F5F5F5F5F5F5F5F5F5F5F5F5F5F5F5F5F5F5F5F5F5F5F5F5F5F5F5F5F5F5F5F5F5F5F5F5F5F5F5F5F5F5F5F5F5F5F5F5F5F5F5F5F5F5F5F5F5F5F5F5F5F5F5F5F5F5F5F5F5F5F5F5F5F5F5F5F5F5F5F5F5F5F5F5F5F5F5F5F5F5F5F5F5F5F5F5F5
310
F5F5F5F5F5F5F5F5F5F5F5F5F5F5F5F5F5F5F5F5F5F5F5F5F5F5F5F5F5F5F5F5F5F5F5F5F5F5F5F5F5F5F5E2F5F5F5E2E2E2F5F5F5E2F5F5F5F5F5F5F5F5F5F5F5F5F5F5F5F5F5F5F5F5F5F5F5F5F5F5F5F5F5F5F5F5F5F5F5F5F5F5F5F5F5F5F5F5F5F5F5F5F5F5F5F5F5F5F5F5F5F5F5F5F5F5F5F5F5F5F5F5F5F5F5F5F5
310
F5F5F5F5F5F5F5F5F5F5F5F5F5F5F5F5F5F5F5F5F5F5F5F5F5F5F5F5F5F5F5F5F5F5F5F5F5F5F5F5F5F5F5F5F5F5F5F5F5F5F5F5F5F5F5F5F5F5F5F5F5F5F5F5F5F5F5F5F5F5F5F5F5F5F5F5F5F5F5F5F5F5F5F5F5F5F5F5F5F5F5F5F5F5F5F5E2F5F5F5E2E2E2F5F5F5E2F5F5F5F5F5F5F5F5F5F5F5F5F5F5F5F5F5F5F5F5
310
F5F5F5F5F5F5F5F5F5F5F5F5F5F5F5F5F5F5F5F5F5F5F5F5F5F5F5F5F5F5F5F5F5F5F5F5F5F5F5F5F5F5F5F5F5F5F5F5F5F5F5F5F5F5F5F5F5F5F5F5F5F5F5F5F5F5F5F5F5F5F5F5F5F5F5F5F5F5F5F5F5F5F5F5F5F5F5F5F5F5F5F5F5F5F5F5F5F5F5F5F5F5F5F5F5F5F5F5F5F5F5F5F5F5F5F5F5F5F5F5F5F5F5F5F5F5F5
310
F5F5F5F5F5F5F5F5F5F5F5F5F5F5F5F5F5F5F5F5F5F5E2F5F5F5E2E2E2F5F5F5F5F5F5F5F5F5F5F5F5F5F5F5F5F5F5F5F5F5F5F5F5F5F5F5F5F5F5F5F5F5F5F5F5F5F5F5F5F5F5F5F5F5F5F5F5F5F5F5F5F5F5F5F5F5F5F5F5F5F5F5F5F5F5F5F5F5F5F5F5F5F5F5F5F5F5F5F5F5F5F5F5F5F5F5F5F5F5F5F5F5F5F5F5F5F5
310
F5F5F5F5F5F5F5F5F5F5F5F5F5F5F5F5F5F5F5F5F5F5F5F5F5F5F5F5F5F5F5F5F5F5F5F5F5F5F5F5F5F5F5F5F5F5F5F5F5F5F5F5F5F5F5F5F5F5F5F5F5F5F5F5F5F5F5F5F5F5F5F5F5F5F5F5F5F5F5E2E2E2F5F5F5F5F5F5F5F5F5F5F5F5F5F5F5F5F5F5F5F5F5F5F5F5F5F5F5F5F5F5F5F5F5F5F5F5F5F5F5F5F5F5F5F5F5
310
F5F5F5F5F5F5F5F5F5F5F5F5F5F5F5F5F5F5F5F5F5F5F5F5F5F5F5F5F5F5F5F5F5F5F5F5F5F5F5F5F5F5F5F5F5F5F5F5F5F5F5F5F5F5F5F5F5F5F5F5F5F5F5F5F5F5F5F5F5F5F5F5F5F5F5F5F5F5F5F5F5F5F5F5F5F5F5F5F5F5F5F5F5F5F5F5F5F5F5F5F5F5F5F5F5F5F5F5F5F5F5F5F5F5F5F5F5F5F5F5F5F5F5F5F5F5F5
310
F5F5F5F5F5E2E2E2F5F5F5F5F5F5F5F5F5F5F5F5F5F5F5F5F5F5F5F5F5F5F5F5F5F5F5F5F5F5F5F5F5F5F5F5F5F5F5F5F5F5F5F5F5F5F5F5F5F5F5F5F5F5F5F5F5F5F5F5F5F5F5F5F5F5F5F5F5F5F5F5F5F5F5F5F5F5F5F5F5F5F5F5F5F5F5F5F5F5F5F5F5F5F5F5F5F5F5F5F5F5F5F5F5F5F5F5F5F5F5F5F5F5F5F5F5F5F5
310
F5F5F5F5F5F5F5F5F5F5F5F5F5F5F5F5F5F5F5F5F5F5F5F5F5F5F5F5F5F5F5F5F5F5F5F5F5F5F5F5F5F5F5F5F5F5F5F5F5F5F5F5F5F5F5F5F5F5E2E2E2F5F5F5F5F5F5F5F5F5F5F5F5F5F5F5F5F5F5F5F5F5F5F5F5F5F5F5F5F5F5F5F5F5F5F5F5F5F5F5F5F5F5F5F5F5F5F5F5F5F5F5F5F5F5F5F5F5F5F5F5F5F5F5F5F5F5
310
F5F5F5F5F5F5F5F5F5F5F5F5F5F5F5F5F5F5F5F5F5F5F5F5F5F5F5F5F5F5F5F5F5F5F5F5F5F5F5F5F5F5F5F5F5F5F5F5F5F5F5F5F5F5F5F5F5F5F5F5F5F5F5F5F5F5F5F5F5F5F5F5F5F5F5F5F5F5F5F5F5F5F5F5F5F5F5F5F5F5F5F5F5F5F5F5F5F5F5F5F5F5F5F5F5F5F5F5F5F5F5E2E2E2F5F5F5F5F5F5F5F5F5F5F5F5F5
310
F5F5F5F5F5F5F5F5F5F5F5F5F5F5F5F5F5F5F5F5F5F5F5F5F5F5F5F5F5F5F5F5F5F5F5F5F5F5F5F5F5F5F5F5F5F5F5F5F5F5F5F5F5F5F5F5F5F5F5F5F5F5F5F5F5F5F5F5F5F5F5F5F5F5F5F5F5F5F5F5F5F5F5F5F5F5F5F5F5F5F5F5F5F5F5F5F5F5F5F5F5F5F5F5F5F5F5F5F5F5F5F5F5F5F5F5F5F5F5F5F5F5F5F5F5F5F5
310
F5F5F5F5F5F5F5F5F5F5F5F5F5F5F5F5F5F5F5F5F5F5F5F5F5F5F5F5F5F5F5F5F5F5F5F5F5E2E2E2F5F5F5F5F5F5F5F5F5F5F5F5F5F5F5F5F5F5F5F5F5F5F5F5F5F5F5F5F5F5F5F5F5F5F5F5F5F5F5F5F5F5F5F5F5F5F5F5F5F5F5F5F5F5F5F5F5F5F5F5F5F5F5F5F5F5F5F5F5F5F5F5F5F5F5F5F5F5F5F5F5F5F5F5F5F5F5
310
F5F5F5F5F5F5F5F5F5F5F5F5F5F5F5F5F5F5F5F5F5F5F5F5F5F5F5F5F5F5F5F5F5F5F5F5F5F5F5F5F5F5F5F5F5F5F5F5F5F5F5F5F5F5F5F5F5F5F5F5F5F5F5F5F5F5F5F5F5F5F5F5F5F5F5F5F5F5F5F5F5F5F5F5F5F5F5F5F5F5E2E2E2F5F5F5F5F5F5F5F5F5F5F5F5F5F5F5F5F5F5F5F5F5F5F5F5F5F5F5F5F5F5F5F5F5F5
310
F5F5F5F5F5F5F5F5F5F5F5F5F5F5F5F5F5F5F5F5F5F5F5F5F5F5F5F5F5F5F5F5F5F5F5F5F5F5F5F5F5F5F5F5F5F5F5F5F5F5F5F5F5F5F5F5F5F5F5F5F5F5F5F5F5F5F5F5F5F5F5F5F5F5F5F5F5F5F5F5F5F5F5F5F5F5F5F5F5F5F5F5F5F5F5F5F5F5F5F5F5F5F5F5F5F5F5F5F5F5F5F5F5F5F5F5F5F5F5F5F5F5F5F5F5F5F5
310
F5F5F5F5F5F5F5F5F5F5F5F5F5F5F5F5E2E2E2F5F5F5F5F5F5F5F5F5F5F5F5F5F5F5F5F5F5F5F5F5F5F5F5F5F5F5F5F5F5F5F5F5F5F5F5F5F5F5F5F5F5F5F5F5F5F5F5F5F5F5F5F5F5F5F5F5F5F5F5F5F5F5F5F5F5F5F5F5F5F5F5F5F5F5F5F5F5F5F5F5F5F5F5F5F5F5F5F5F5F5F5F5F5F5F5F5F5F5F5F5F5F5F5F5F5F5F5
310
F5F5F5F5F5F5F5F5F5F5F5F5F5F5F5F5F5F5F5F5F5F5F5F5F5F5F5F5F5F5F5F5F5F5F5F5F5F5F5F5F5F5F5F5F5F5F5F5F5F5F5F5F5F5F5F5F5F5F5F5F5F5F5F5F5F5F5F5F5E2E2E2F5F5F5F5F5F5F5F5F5F5F5F5F5F5F5F5F5F5F5F5F5F5F5F5F5F5F5F5F5F5F5F5F5F5F5F5F5F5F5F5F5F5F5F5F5F5F5F5F5F5F5F5F5F5F5
310
F5F5F5F5F5F5F5F5F5F5F5F5F5F5F5F5F5F5F5F5F5F5F5F5F5F5F5F5F5F5F5F5F5F5F5F5F5F5F5F5F5F5F5F5F5F5F5F5F5F5F5F5F5F5F5F5F5F5F5F5F5F5F5F5F5F5F5F5F5F5F5F5F5F5F5F5F5F5F5F5F5F5F5F5F5F5F5F5F5F5F5F5F5F5F5F5F5F5F5F5F5F5F5F5F5F5F5F5F5F5F5F5F5F5F5F5F5F5F5F5F5F5E2E2E2F5F5
310
F5E2F5F5F5F5F5F5F5F5F5F5F5F5F5F5F5F5F5F5F5F5F5F5F5F5F5F5F5F5F5F5F5F5F5F5F5F5F5F5F5F5F5F5F5F5F5F5F5F5F5F5F5F5F5F5F5F5F5F5F5F5F5F5F5F5F5F5F5F5F5F5F5F5F5F5F5F5F5F5F5F5F5F5F5F5F5F5F5F5F5F5F5F5F5F5F5F5F5F5F5F5F5F5F5F5F5F5F5F5F5F5F5F5F5F5F5F5F5F5F5F5F5F5F5F5F5
310
F5F5F5F5F5F5F5F5F5F5F5F5F5F5F5F5F5F5F5F5F5F5F5F5F5F5F5F5F5F5F5F5F5F5F5F5F5F5F5F5F5F5F5F5E2F5F5F5E2E2E2F5F5F5E2F5F5F5F5F5F5F5F5F5F5F5F5F5F5F5F5F5F5F5F5F5F5F5F5F5F5F5F5F5F5F5F5F5F5F5F5F5F5F5F5F5F5F5F5F5F5F5F5F5F5F5F5F5F5F5F5F5F5F5F5F5F5F5F5F5F5F5F5F5F5F5F5
310
F5F5F5F5F5F5F5F5F5F5F5F5F5F5F5F5F5F5F5F5F5F5F5F5F5F5F5F5F5F5F5F5F5F5F5F5F5F5F5F5F5F5F5F5F5F5F5F5F5F5F5F5F5F5F5F5F5F5F5F5F5F5F5F5F5F5F5F5F5F5F5F5F5F5F5F5F5F5F5F5F5F5F5F5F5F5F5F5F5F5F5F5F5F5F5F5F5E2F5F5F5E2E2E2F5F5F5E2F5F5F5F5F5F5F5F5F5F5F5F5F5F5F5F5F5F5F5
310
F5F5F5F5F5F5F5F5F5F5F5F5F5F5F5F5F5F5F5F5F5F5F5F5F5F5F5F5F5F5F5F5F5F5F5F5F5F5F5F5F5F5F5F5F5F5F5F5F5F5F5F5F5F5F5F5F5F5F5F5F5F5F5F5F5F5F5F5F5F5F5F5F5F5F5F5F5F5F5F5F5F5F5F5F5F5F5F5F5F5F5F5F5F5F5F5F5F5F5F5F5F5F5F5F5F5F5F5F5F5F5F5F5F5F5F5F5F5F5F5F5F5F5F5F5F5F5
310
F5F5F5F5F5F5F5F5F5F5F5F5F5F5F5F5F5F5F5F5F5F5F5E2F5F5F5E2E2E2F5F5F5E2F5F5F5F5F5F5F5F5F5F5F5F5F5F5F5F5F5F5F5F5F5F5F5F5F5F5F5F5F5F5F5F5F5F5F5F5F5F5F5F5F5F5F5F5F5F5F5F5F5F5F5F5F5F5F5F5F5F5F5F5F5F5F5F5F5F5F5F5F5F5F5F5F5F5F5F5F5F5F5F5F5F5F5F5F5F5F5F5F5F5F5F5F5
310
F5F5F5F5F5F5F5F5F5F5F5F5F5F5F5F5F5F5F5F5F5F5F5F5F5F5F5F5F5F5F5F5F5F5F5F5F5F5F5F5F5F5F5F5F5F5F5F5F5F5F5F5F5F5F5F5F5F5F5F5F5F5F5F5F5F5F5F5F5F5F5F5F5F5F5F5E2F5F5F5E2E2E2F5F5F5E2F5F5F5F5F5F5F5F5F5F5F5F5F5F5F5F5F5F5F5F5F5F5F5F5F5F5F5F5F5F5F5F5F5F5F5F5F5F5F5F5
310
F5F5F5F5F5F5F5F5F5F5F5F5F5F5F5F5F5F5F5F5F5F5F5F5F5F5F5F5F5F5F5F5F5F5F5F5F5F5F5F5F5F5F5F5F5F5F5F5F5F5F5F5F5F5F5F5F5F5F5F5F5F5F5F5F5F5F5F5F5F5F5F5F5F5F5F5F5F5F5F5F5F5F5F5F5F5F5F5F5F5F5F5F5F5F5F5F5F5F5F5F5F5F5F5F5F5F5F5F5F5F5F5F5F5F5F5F5F5F5F5F5F5F5F5F5F5F5
310
F5F5E2F5F5F5E2E2E2F5F5F5E2F5F5F5F5F5F5F5F5F5F5F5F5F5F5F5F5F5F5F5F5F5F5F5F5F5F5F5F5F5F5F5F5F5F5F5F5F5F5F5F5F5F5F5F5F5F5F5F5F5F5F5F5F5F5F5F5F5F5F5F5F5F5F5F5F5F5F5F5F5F5F5F5F5F5F5F5F5F5F5F5F5F5F5F5F5F5F5F5F5F5F5F5F5F5F5F5F5F5F5F5F5F5F5F5F5F5F5F5F5F5F5F5F5F5
310
F5F5F5F5F5F5F5F5F5F5F5F5F5F5F5F5F5F5F5F5F5F5F5F5F5F5F5F5F5F5F5F5F5F5F5F5F5F5F5F5F5F5F5F5F5F5F5F5F5F5F5F5F5F5F5E2F5F5F5E2E2E2F5F5F5E2F5F5F5F5F5F5F5F5F5F5F5F5F5F5F5F5F5F5F5F5F5F5F5F5F5F5F5F5F5F5F5F5F5F5F5F5F5F5F5F5F5F5F5F5F5F5F5F5F5F5F5F5F5F5F5F5F5F5F5F5F5
310
F5F5F5F5F5F5F5F5F5F5F5F5F5F5F5F5F5F5F5F5F5F5F5F5F5F5F5F5F5F5F5F5F5F5F5F5F5F5F5F5F5F5F5F5F5F5F5F5F5F5F5F5F5F5F5F5F5F5F5F5F5F5F5F5F5F5F5F5F5F5F5F5F5F5F5F5F5F5F5F5F5F5F5F5F5F5F5F5F5F5F5F5F5F5F5F5F5F5F5F5F5F5F5F5F5F5F5F5E2F5F5F5E2E2E2F5F5F5E2F5F5F5F5F5F5F5F5
310
F5F5F5F5F5F5F5F5F5F5F5F5F5F5F5F5F5F5F5F5F5F5F5F5F5F5F5F5F5F5F5F5F5F5F5F5F5F5F5F5F5F5F5F5F5F5F5F5F5F5F5F5F5F5F5F5F5F5F5F5F5F5F5F5F5F5F5F5F5F5F5F5F5F5F5F5F5F5F5F5F5F5F5F5F5F5F5F5F5F5F5F5F5F5F5F5F5F5F5F5F5F5F5F5F5F5F5F5F5F5F5F5F5F5F5F5F5F5F5F5F5F5F5F5F5F5F5
310
F5F5F5F5F5F5F5F5F5F5F5F5F5F5F5F5F5F5F5F5F5F5F5F5F5F5F5F5F5F5F5F5F5F5E2F5F5F5E2E2E2F5F5F5E2F5F5F5F5F5F5F5F5F5F5F5F5F5F5F5F5F5F5F5F5F5F5F5F5F5F5F5F5F5F5F5F5F5F5F5F5F5F5F5F5F5F5F5F5F5F5F5F5F5F5F5F5F5F5F5F5F5F5F5F5F5F5F5F5F5F5F5F5F5F5F5F5F5F5F5F5F5F5F5F5F5F5
310
F5F5F5F5F5F5F5F5F5F5F5F5F5F5F5F5F5F5F5F5F5F5F5F5F5F5F5F5F5F5F5F5F5F5F5F5F5F5F5F5F5F5F5F5F5F5F5F5F5F5F5F5F5F5F5F5F5F5F5F5F5F5F5F5F5F5F5F5F5F5F5F5F5F5F5F5F5F5F5F5F5F5F5F5F5F5F5E2F5F5F5E2E2E2F5F5F5E2F5F5F5F5F5F5F5F5F5F5F5F5F5F5F5F5F5F5F5F5F5F5F5F5F5F5F5F5F5
310
F5F5F5F5F5F5F5F5F5F5F5F5F5F5F5F5F5F5F5F5F5F5F5F5F5F5F5F5F5F5F5F5F5F5F5F5F5F5F5F5F5F5F5F5F5F5F5F5F5F5F5F5F5F5F5F5F5F5F5F5F5F5F5F5F5F5F5F5F5F5F5F5F5F5F5F5F5F5F5F5F5F5F5F5F5F5F5F5F5F5F5F5F5F5F5F5F5F5F5F5F5F5F5F5F5F5F5F5F5F5F5F5F5F5F5F5F5F5F5F5F5F5F5F5F5F5F5
310
F5F5F5F5F5F5F5F5F5F5F5F5F5E2F5F5F5E2E2E2F5F5F5E2F5F5F5F5F5F5F5F5F5F5F5F5F5F5F5F5F5F5F5F5F5F5F5F5F5F5F5F5F5F5F5F5F5F5F5F5F5F5F5F5F5F5F5F5F5F5F5F5F5F5F5F5F5F5F5F5F5F5F5F5F5F5F5F5F5F5F5F5F5F5F5F5F5F5F5F5F5F5F5F5F5F5F5F5F5F5F5F5F5F5F5F5F5F5F5F5F5F5F5F5F5F5F5
310
F5F5F5F5F5F5F5F5F5F5F5F5F5F5F5F5F5F5F5F5F5F5F5F5F5F5F5F5F5F5F5F5F5F5F5F5F5F5F5F5F5F5F5F5F5F5F5F5F5F5F5F5F5F5F5F5F5F5F5F5F5F5F5F5F5F5E2F5F5F5E2E2E2F5F5F5E2F5F5F5F5F5F5F5F5F5F5F5F5F5F5F5F5F5F5F5F5F5F5F5F5F5F5F5F5F5F5F5F5F5F5F5F5F5F5F5F5F5F5F5F5F5F5F5F5F5F5
310
F5F5F5F5F5F5F5F5F5F5F5F5F5F5F5F5F5F5F5F5F5F5F5F5F5F5F5F5F5F5F5F5F5F5F5F5F5F5F5F5F5F5F5F5F5F5F5F5F5F5F5F5F5F5F5F5F5F5F5F5F5F5F5F5F5F5F5F5F5F5F5F5F5F5F5F5F5F5F5F5F5F5F5F5F5F5F5F5F5F5F5F5F5F5F5F5F5F5F5F5F5F5F5F5F5F5F5F5F5F5F5F5F5F5F5F5F5F5F5E2F5F5F5E2E2E2F5
310
F5F5E2F5F5F5F5F5F5F5F5F5F5F5F5F5F5F5F5F5F5F5F5F5F5F5F5F5F5F5F5F5F5F5F5F5F5F5F5F5F5F5F5F5F5F5F5F5F5F5F5F5F5F5F5F5F5F5F5F5F5F5F5F5F5F5F5F5F5F5F5F5F5F5F5F5F5F5F5F5F5F5F5F5F5F5F5F5F5F5F5F5F5F5F5F5F5F5F5F5F5F5F5F5F5F5F5F5F5F5F5F5F5F5F5F5F5F5F5F5F5F5F5F5F5F5F5
310
F5F5F5F5F5F5F5F5F5F5F5F5F5F5F5F5F5F5F5F5F5F5F5F5F5F5F5F5F5F5F5F5F5F5F5F5F5F5F5F5F5F5F5F5F5E2F5F5F5E2E2E2F5F5F5E2F5F5F5F5F5F5F5F5F5F5F5F5F5F5F5F5F5F5F5F5F5F5F5F5F5F5F5F5F5F5F5F5F5F5F5F5F5F5F5F5F5F5F5F5F5F5F5F5F5F5F5F5F5F5F5F5F5F5F5F5F5F5F5F5F5F5F5F5F5F5F5
310
F5F5F5F5F5F5F5F5F5F5F5F5F5F5F5F5F5F5F5F5F5F5F5F5F5F5F5F5F5F5F5F5F5F5F5F5F5F5F5F5F5F5F5F5F5F5F5F5F5F5F5F5F5F5F5F5F5F5F5F5F5F5F5F5F5F5F5F5F5F5F5F5F5F5F5F5F5F5F5F5F5F5F5F5F5F5F5F5F5F5F5F5F5F5F5F5F5F5E2F5F5F5E2E2E2F5F5F5E2F5F5F5F5F5F5F5F5F5F5F5F5F5F5F5F5F5F5
310
F5F5F5F5F5F5F5F5F5F5F5F5F5F5F5F5F5F5F5F5F5F5F5F5F5F5F5F5F5F5F5F5F5F5F5F5F5F5F5F5F5F5F5F5F5F5F5F5F5F5F5F5F5F5F5F5F5F5F5F5F5F5F5F5F5F5F5F5F5F5F5F5F5F5F5F5F5F5F5F5F5F5F5F5F5F5F5F5F5F5F5F5F5F5F5F5F5F5F5F5F5F5F5F5F5F5F5F5F5F5F5F5F5F5F5F5F5F5F5F5F5F5F5F5F5F5F5
310
F5F5F5F5F5F5F5F5F5F5F5F5F5F5F5F5F5F5F5F5F5F5F5F5E2F5F5F5E2E2E2F5F5F5E2F5F5F5F5F5F5F5F5F5F5F5F5F5F5F5F5F5F5F5F5F5F5F5F5F5F5F5F5F5F5F5F5F5F5F5F5F5F5F5F5F5F5F5F5F5F5F5F5F5F5F5F5F5F5F5F5F5F5F5F5F5F5F5F5F5F5F5F5F5F5F5F5F5F5F5F5F5F5F5F5F5F5F5F5F5F5F5F5F5F5F5F5
310
F5F5F5F5F5F5F5F5F5F5F5F5F5F5F5F5F5F5F5F5F5F5F5F5F5F5F5F5F5F5F5F5F5F5F5F5F5F5F5F5F5F5F5F5F5F5F5F5F5F5F5F5F5F5F5F5F5F5F5F5F5F5F5F5F5F5F5F5F5F5F5F5F5F5F5F5F5E2F5F5F5E2E2E2F5F5F5E2F5F5F5F5F5F5F5F5F5F5F5F5F5F5F5F5F5F5F5F5F5F5F5F5F5F5F5F5F5F5F5F5F5F5F5F5F5F5F5
310
F5F5F5F5F5F5F5F5F5F5F5F5F5F5F5F5F5F5F5F5F5F5F5F5F5F5F5F5F5F5F5F5F5F5F5F5F5F5F5F5F5F5F5F5F5F5F5F5F5F5F5F5F5F5F5F5F5F5F5F5F5F5F5F5F5F5F5F5F5F5F5F5F5F5F5F5F5F5F5F5F5F5F5F5F5F5F5F5F5F5F5F5F5F5F5F5F5F5F5F5F5F5F5F5F5F5F5F5F5F5F5F5F5F5F5F5F5F5F5F5F5F5F5F5F5F5F5
310
F5F5F5E2F5F5F5E2E2E2F5F5F5F5F5F5F5F5F5F5F5F5F5F5F5F5F5F5F5F5F5F5F5F5F5F5F5F5F5F5F5F5F5F5F5F5F5F5F5F5F5F5F5F5F5F5F5F5F5F5F5F5F5F5F5F5F5F5F5F5F5F5F5F5F5F5F5F5F5F5F5F5F5F5F5F5F5F5F5F5F5F5F5F5F5F5F5F5F5F5F5F5F5F5F5F5F5F5F5F5F5F5F5F5F5F5F5F5F5F5F5F5F5F5F5F5F5
310
F5F5F5F5F5F5F5F5F5F5F5F5F5F5F5F5F5F5F5F5F5F5F5F5F5F5F5F5F5F5F5F5F5F5F5F5F5F5F5F5F5F5F5F5F5F5F5F5F5F5F5F5F5F5F5F5F5F5F5F5E2E2E2F5F5F5F5F5F5F5F5F5F5F5F5F5F5F5F5F5F5F5F5F5F5F5F5F5F5F5F5F5F5F5F5F5F5F5F5F5F5F5F5F5F5F5F5F5F5F5F5F5F5F5F5F5F5F5F5F5F5F5F5F5F5F5F5
310
F5F5F5F5F5F5F5F5F5F5F5F5F5F5F5F5F5F5F5F5F5F5F5F5F5F5F5F5F5F5F5F5F5F5F5F5F5F5F5F5F5F5F5F5F5F5F5F5F5F5F5F5F5F5F5F5F5F5F5F5F5F5F5F5F5F5F5F5F5F5F5F5F5F5F5F5F5F5F5F5F5F5F5F5F5F5F5F5F5F5F5F5F5F5F5F5F5F5F5F5F5F5F5F5F5F5F5F5F5F5F5F5F5E2E2E2F5F5F5F5F5F5F5F5F5F5F5
310
F5F5F5F5F5F5F5F5F5F5F5F5F5F5F5F5F5F5F5F5F5F5F5F5F5F5F5F5F5F5F5F5F5F5F5F5F5F5F5F5F5F5F5F5F5F5F5F5F5F5F5F5F5F5F5F5F5F5F5F5F5F5F5F5F5F5F5F5F5F5F5F5F5F5F5F5F5F5F5F5F5F5F5F5F5F5F5F5F5F5F5F5F5F5F5F5F5F5F5F5F5F5F5F5F5F5F5F5F5F5F5F5F5F5F5F5F5F5F5F5F5F5F5F5F5F5F5
310
F5F5F5F5F5F5F5F5F5F5F5F5F5F5F5F5F5F5F5F5F5F5F5F5F5F5F5F5F5F5F5F5F5F5F5F5F5F5F5E2E2E2F5F5F5F5F5F5F5F5F5F5F5F5F5F5F5F5F5F5F5F5F5F5F5F5F5F5F5F5F5F5F5F5F5F5F5F5F5F5F5F5F5F5F5F5F5F5F5F5F5F5F5F5F5F5F5F5F5F5F5F5F5F5F5F5F5F5F5F5F5F5F5F5F5F5F5F5F5F5F5F5F5F5F5F5F5
310
F5F5F5F5F5F5F5F5F5F5F5F5F5F5F5F5F5F5F5F5F5F5F5F5F5F5F5F5F5F5F5F5F5F5F5F5F5F5F5F5F5F5F5F5F5F5F5F5F5F5F5F5F5F5F5F5F5F5F5F5F5F5F5F5F5F5F5F5F5F5F5F5F5F5F5F5F5F5F5F5F5F5F5F5F5F5F5F5F5F5F5F5E2E2E2F5F5F5F5F5F5F5F5F5F5F5F5F5F5F5F5F5F5F5F5F5F5F5F5F5F5F5F5F5F5F5F5
310
F5F5F5F5F5F5F5F5F5F5F5F5F5F5F5F5F5F5F5F5F5F5F5F5F5F5F5F5F5F5F5F5F5F5F5F5F5F5F5F5F5F5F5F5F5F5F5F5F5F5F5F5F5F5F5F5F5F5F5F5F5F5F5F5F5F5F5F5F5F5F5F5F5F5F5F5F5F5F5F5F5F5F5F5F5F5F5F5F5F5F5F5F5F5F5F5F5F5F5F5F5F5F5F5F5F5F5F5F5F5F5F5F5F5F5F5F5F5F5F5F5F5F5F5F5F5F5
310
F5F5F5F5F5F5F5F5F5F5F5F5F5F5F5F5F5F5E2E2E2F5F5F5F5F5F5F5F5F5F5F5F5F5F5F5F5F5F5F5F5F5F5F5F5F5F5F5F5F5F5F5F5F5F5F5F5F5F5F5F5F5F5F5F5F5F5F5F5F5F5F5F5F5F5F5F5F5F5F5F5F5F5F5F5F5F5F5F5F5F5F5F5F5F5F5F5F5F5F5F5F5F5F5F5F5F5F5F5F5F5F5F5F5F5F5F5F5F5F5F5F5F5F5F5F5F5
310
F5F5F5F5F5F5F5F5F5F5F5F5F5F5F5F5F5F5F5F5F5F5F5F5F5F5F5F5F5F5F5F5F5F5F5F5F5F5F5F5F5F5F5F5F5F5F5F5F5F5F5F5F5F5F5F5F5F5F5F5F5F5F5F5F5F5F5F5F5F5F5E2E2E2F5F5F5F5F5F5F5F5F5F5F5F5F5F5F5F5F5F5F5F5F5F5F5F5F5F5F5F5F5F5F5F5F5F5F5F5F5F5F5F5F5F5F5F5F5F5F5F5F5F5F5F5F5
310
F5F5F5F5F5F5F5F5F5F5F5F5F5F5F5F5F5F5F5F5F5F5F5F5F5F5F5F5F5F5F5F5F5F5F5F5F5F5F5F5F5F5F5F5F5F5F5F5F5F5F5F5F5F5F5F5F5F5F5F5F5F5F5F5F5F5F5F5F5F5F5F5F5F5F5F5F5F5F5F5F5F5F5F5F5F5F5F5F5F5F5F5F5F5F5F5F5F5F5F5F5F5F5F5F5F5F5F5F5F5F5F5F5F5F5F5F5F5F5F5F5F5F5F5E2E2E2
310
F5F5F5F5F5F5F5F5F5F5F5F5F5F5F5F5F5F5F5F5F5F5F5F5F5F5F5F5F5F5F5F5F5F5F5F5F5F5F5F5F5F5F5F5F5F5F5F5F5F5F5F5F5F5F5F5F5F5F5F5F5F5F5F5F5F5F5F5F5F5F5F5F5F5F5F5F5F5F5F5F5F5F5F5F5F5F5F5F5F5F5F5F5F5F5F5F5F5F5F5F5F5F5F5F5F5F5F5F5F5F5F5F5F5F5F5F5F5F5F5F5F5F5F5F5F5F5
310
F5F5F5F5F5F5F5F5F5F5F5F5F5F5F5F5F5F5F5F5F5F5F5F5F5F5F5F5F5F5F5F5F5F5F5F5F5F5F5F5F5F5F5F5F5F5F5F5F5F5E2E2E2F5F5F5F5F5F5F5F5F5F5F5F5F5F5F5F5F5F5F5F5F5F5F5F5F5F5F5F5F5F5F5F5F5F5F5F5F5F5F5F5F5F5F5F5F5F5F5F5F5F5F5F5F5F5F5F5F5F5F5F5F5F5F5F5F5F5F5F5F5F5F5F5F5F5
310
F5F5F5F5F5F5F5F5F5F5F5F5F5F5F5F5F5F5F5F5F5F5F5F5F5F5F5F5F5F5F5F5F5F5F5F5F5F5F5F5F5F5F5F5F5F5F5F5F5F5F5F5F5F5F5F5F5F5F5F5F5F5F5F5F5F5F5F5F5F5F5F5F5F5F5F5F5F5F5F5F5F5F5F5F5F5F5F5F5F5F5F5F5F5F5F5F5F5F5F5F5F5F5E2E2E2F5F5F5E2F5F5F5F5F5F5F5F5F5F5F5F5F5F5F5F5F5
310
F5F5F5F5F5F5F5F5F5F5F5F5F5F5F5F5F5F5F5F5F5F5F5F5F5F5F5F5F5F5F5F5F5F5F5F5F5F5F5F5F5F5F5F5F5F5F5F5F5F5F5F5F5F5F5F5F5F5F5F5F5F5F5F5F5F5F5F5F5F5F5F5F5F5F5F5F5F5F5F5F5F5F5F5F5F5F5F5F5F5F5F5F5F5F5F5F5F5F5F5F5F5F5F5F5F5F5F5F5F5F5F5F5F5F5F5F5F5F5F5F5F5F5F5F5F5F5
310
F5F5F5F5F5F5F5F5F5F5F5F5F5F5F5F5F5F5F5F5F5F5F5F5F5E2F5F5F5E2E2E2F5F5F5E2F5F5F5F5F5F5F5F5F5F5F5F5F5F5F5F5F5F5F5F5F5F5F5F5F5F5F5F5F5F5F5F5F5F5F5F5F5F5F5F5F5F5F5F5F5F5F5F5F5F5F5F5F5F5F5F5F5F5F5F5F5F5F5F5F5F5F5F5F5F5F5F5F5F5F5F5F5F5F5F5F5F5F5F5F5F5F5F5F5F5F5
310
F5F5F5F5F5F5F5F5F5F5F5F5F5F5F5F5F5F5F5F5F5F5F5F5F5F5F5F5F5F5F5F5F5F5F5F5F5F5F5F5F5F5F5F5F5F5F5F5F5F5F5F5F5F5F5F5F5F5F5F5F5F5F5F5F5F5F5F5F5F5F5F5F5F5F5F5F5F5E2F5F5F5E2E2E2F5F5F5E2F5F5F5F5F5F5F5F5F5F5F5F5F5F5F5F5F5F5F5F5F5F5F5F5F5F5F5F5F5F5F5F5F5F5F5F5F5F5
310
F5F5F5F5F5F5F5F5F5F5F5F5F5F5F5F5F5F5F5F5F5F5F5F5F5F5F5F5F5F5F5F5F5F5F5F5F5F5F5F5F5F5F5F5F5F5F5F5F5F5F5F5F5F5F5F5F5F5F5F5F5F5F5F5F5F5F5F5F5F5F5F5F5F5F5F5F5F5F5F5F5F5F5F5F5F5F5F5F5F5F5F5F5F5F5F5F5F5F5F5F5F5F5F5F5F5F5F5F5F5F5F5F5F5F5F5F5F5F5F5F5F5F5F5F5F5F5
310
F5F5F5F5E2F5F5F5E2E2E2F5F5F5E2F5F5F5F5F5F5F5F5F5F5F5F5F5F5F5F5F5F5F5F5F5F5F5F5F5F5F5F5F5F5F5F5F5F5F5F5F5F5F5F5F5F5F5F5F5F5F5F5F5F5F5F5F5F5F5F5F5F5F5F5F5F5F5F5F5F5F5F5F5F5F5F5F5F5F5F5F5F5F5F5F5F5F5F5F5F5F5F5F5F5F5F5F5F5F5F5F5F5F5F5F5F5F5F5F5F5F5F5F5F5F5F5
310
F5F5F5F5F5F5F5F5F5F5F5F5F5F5F5F5F5F5F5F5F5F5F5F5F5F5F5F5F5F5F5F5F5F5F5F5F5F5F5F5F5F5F5F5F5F5F5F5F5F5F5F5F5F5F5F5F5E2F5F5F5E2E2E2F5F5F5E2F5F5F5F5F5F5F5F5F5F5F5F5F5F5F5F5F5F5F5F5F5F5F5F5F5F5F5F5F5F5F5F5F5F5F5F5F5F5F5F5F5F5F5F5F5F5F5F5F5F5F5F5F5F5F5F5F5F5F5
310
F5F5F5F5F5F5F5F5F5F5F5F5F5F5F5F5F5F5F5F5F5F5F5F5F5F5F5F5F5F5F5F5F5F5F5F5F5F5F5F5F5F5F5F5F5F5F5F5F5F5F5F5F5F5F5F5F5F5F5F5F5F5F5F5F5F5F5F5F5F5F5F5F5F5F5F5F5F5F5F5F5F5F5F5F5F5F5F5F5F5F5F5F5F5F5F5F5F5F5F5F5F5F5F5F5F5F5F5F5F5E2F5F5F5E2E2E2F5F5F5E2F5F5F5F5F5F5
310
F5F5F5F5F5F5F5F5F5F5F5F5F5F5F5F5F5F5F5F5F5F5F5F5F5F5F5F5F5F5F5F5F5F5F5F5F5F5F5F5F5F5F5F5F5F5F5F5F5F5F5F5F5F5F5F5F5F5F5F5F5F5F5F5F5F5F5F5F5F5F5F5F5F5F5F5F5F5F5F5F5F5F5F5F5F5F5F5F5F5F5F5F5F5F5F5F5F5F5F5F5F5F5F5F5F5F5F5F5F5F5F5F5F5F5F5F5F5F5F5F5F5F5F5F5F5F5
310
F5F5F5F5F5F5F5F5F5F5F5F5F5F5F5F5F5F5F5F5F5F5F5F5F5F5F5F5F5F5F5F5F5F5F5F5E2F5F5F5E2E2E2F5F5F5E2F5F5F5F5F5F5F5F5F5F5F5F5F5F5F5F5F5F5F5F5F5F5F5F5F5F5F5F5F5F5F5F5F5F5F5F5F5F5F5F5F5F5F5F5F5F5F5F5F5F5F5F5F5F5F5F5F5F5F5F5F5F5F5F5F5F5F5F5F5F5F5F5F5F5F5F5F5F5F5F5
310
F5F5F5F5F5F5F5F5F5F5F5F5F5F5F5F5F5F5F5F5F5F5F5F5F5F5F5F5F5F5F5F5F5F5F5F5F5F5F5F5F5F5F5F5F5F5F5F5F5F5F5F5F5F5F5F5F5F5F5F5F5F5F5F5F5F5F5F5F5F5F5F5F5F5F5F5F5F5F5F5F5F5F5F5F5F5F5F5F5E2F5F5F5E2E2E2F5F5F5E2F5F5F5F5F5F5F5F5F5F5F5F5F5F5F5F5F5F5F5F5F5F5F5F5F5F5F5
310
F5F5F5F5F5F5F5F5F5F5F5F5F5F5F5F5F5F5F5F5F5F5F5F5F5F5F5F5F5F5F5F5F5F5F5F5F5F5F5F5F5F5F5F5F5F5F5F5F5F5F5F5F5F5F5F5F5F5F5F5F5F5F5F5F5F5F5F5F5F5F5F5F5F5F5F5F5F5F5F5F5F5F5F5F5F5F5F5F5F5F5F5F5F5F5F5F5F5F5F5F5F5F5F5F5F5F5F5F5F5F5F5F5F5F5F5F5F5F5F5F5F5F5F5F5F5F5
310
F5F5F5F5F5F5F5F5F5F5F5F5F5F5F5E2F5F5F5E2E2E2F5F5F5E2F5F5F5F5F5F5F5F5F5F5F5F5F5F5F5F5F5F5F5F5F5F5F5F5F5F5F5F5F5F5F5F5F5F5F5F5F5F5F5F5F5F5F5F5F5F5F5F5F5F5F5F5F5F5F5F5F5F5F5F5F5F5F5F5F5F5F5F5F5F5F5F5F5F5F5F5F5F5F5F5F5F5F5F5F5F5F5F5F5F5F5F5F5F5F5F5F5F5F5F5F5
310
F5F5F5F5F5F5F5F5F5F5F5F5F5F5F5F5F5F5F5F5F5F5F5F5F5F5F5F5F5F5F5F5F5F5F5F5F5F5F5F5F5F5F5F5F5F5F5F5F5F5F5F5F5F5F5F5F5F5F5F5F5F5F5F5F5F5F5F5E2F5F5F5E2E2E2F5F5F5E2F5F5F5F5F5F5F5F5F5F5F5F5F5F5F5F5F5F5F5F5F5F5F5F5F5F5F5F5F5F5F5F5F5F5F5F5F5F5F5F5F5F5F5F5F5F5F5F5
310
F5F5F5F5F5F5F5F5F5F5F5F5F5F5F5F5F5F5F5F5F5F5F5F5F5F5F5F5F5F5F5F5F5F5F5F5F5F5F5F5F5F5F5F5F5F5F5F5F5F5F5F5F5F5F5F5F5F5F5F5F5F5F5F5F5F5F5F5F5F5F5F5F5F5F5F5F5F5F5F5F5F5F5F5F5F5F5F5F5F5F5F5F5F5F5F5F5F5F5F5F5F5F5F5F5F5F5F5F5F5F5F5F5F5F5F5F5F5F5F5F5E2F5F5F5E2E2
310
E2F5F5F5E2F5F5F5F5F5F5F5F5F5F5F5F5F5F5F5F5F5F5F5F5F5F5F5F5F5F5F5F5F5F5F5F5F5F5F5F5F5F5F5F5F5F5F5F5F5F5F5F5F5F5F5F5F5F5F5F5F5F5F5F5F5F5F5F5F5F5F5F5F5F5F5F5F5F5F5F5F5F5F5F5F5F5F5F5F5F5F5F5F5F5F5F5F5F5F5F5F5F5F5F5F5F5F5F5F5F5F5F5F5F5F5F5F5F5F5F5F5F5F5F5F5F5
310
F5F5F5F5F5F5F5F5F5F5F5F5F5F5F5F5F5F5F5F5F5F5F5F5F5F5F5F5F5F5F5F5F5F5F5F5F5F5F5F5F5F5F5F5F5F5F5E2F5F5F5E2E2E2F5F5F5E2F5F5F5F5F5F5F5F5F5F5F5F5F5F5F5F5F5F5F5F5F5F5F5F5F5F5F5F5F5F5F5F5F5F5F5F5F5F5F5F5F5F5F5F5F5F5F5F5F5F5F5F5F5F5F5F5F5F5F5F5F5F5F5F5F5F5F5F5F5
310
F5F5F5F5F5F5F5F5F5F5F5F5F5F5F5F5F5F5F5F5F5F5F5F5F5F5F5F5F5F5F5F5F5F5F5F5F5F5F5F5F5F5F5F5F5F5F5F5F5F5F5F5F5F5F5F5F5F5F5F5F5F5F5F5F5F5F5F5F5F5F5F5F5F5F5F5F5F5F5F5F5F5F5F5F5F5F5F5F5F5F5F5F5F5F5F5F5F5F5F5E2F5F5F5E2E2E2F5F5F5E2F5F5F5F5F5F5F5F5F5F5F5F5F5F5F5F5
310
F5F5F5F5F5F5F5F5F5F5F5F5F5F5F5F5F5F5F5F5F5F5F5F5F5F5F5F5F5F5F5F5F5F5F5F5F5F5F5F5F5F5F5F5F5F5F5F5F5F5F5F5F5F5F5F5F5F5F5F5F5F5F5F5F5F5F5F5F5F5F5F5F5F5F5F5F5F5F5F5F5F5F5F5F5F5F5F5F5F5F5F5F5F5F5F5F5F5F5F5F5F5F5F5F5F5F5F5F5F5F5F5F5F5F5F5F5F5F5F5F5F5F5F5F5F5F5
310
F5F5F5F5F5F5F5F5F5F5F5F5F5F5F5F5F5F5F5F5F5F5F5F5F5F5E2F5F5F5E2E2E2F5F5F5E2F5F5F5F5F5F5F5F5F5F5F5F5F5F5F5F5F5F5F5F5F5F5F5F5F5F5F5F5F5F5F5F5F5F5F5F5F5F5F5F5F5F5F5F5F5F5F5F5F5F5F5F5F5F5F5F5F5F5F5F5F5F5F5F5F5F5F5F5F5F5F5F5F5F5F5F5F5F5F5F5F5F5F5F5F5F5F5F5F5F5
310
F5F5F5F5F5F5F5F5F5F5F5F5F5F5F5F5F5F5F5F5F5F5F5F5F5F5F5F5F5F5F5F5F5F5F5F5F5F5F5F5F5F5F5F5F5F5F5F5F5F5F5F5F5F5F5F5F5F5F5F5F5F5F5F5F5F5F5F5F5F5F5F5F5F5F5F5F5F5F5E2F5F5F5E2E2E2F5F5F5E2F5F5F5F5F5F5F5F5F5F5F5F5F5F5F5F5F5F5F5F5F5F5F5F5F5F5F5F5F5F5F5F5F5F5F5F5F5
310
F5F5F5F5F5F5F5F5F5F5F5F5F5F5F5F5F5F5F5F5F5F5F5F5F5F5F5F5F5F5F5F5F5F5F5F5F5F5F5F5F5F5F5F5F5F5F5F5F5F5F5F5F5F5F5F5F5F5F5F5F5F5F5F5F5F5F5F5F5F5F5F5F5F5F5F5F5F5F5F5F5F5F5F5F5F5F5F5F5F5F5F5F5F5F5F5F5F5F5F5F5F5F5F5F5F5F5F5F5F5F5F5F5F5F5F5F5F5F5F5F5F5F5F5F5F5F5
310
F5F5F5F5F5E2F5F5F5E2E2E2F5F5F5E2F5F5F5F5F5F5F5F5F5F5F5F5F5F5F5F5F5F5F5F5F5F5F5F5F5F5F5F5F5F5F5F5F5F5F5F5F5F5F5F5F5F5F5F5F5F5F5F5F5F5F5F5F5F5F5F5F5F5F5F5F5F5F5F5F5F5F5F5F5F5F5F5F5F5F5F5F5F5F5F5F5F5F5F5F5F5F5F5F5F5F5F5F5F5F5F5F5F5F5F5F5F5F5F5F5F5F5F5F5F5F5
310
F5F5F5F5F5F5F5F5F5F5F5F5F5F5F5F5F5F5F5F5F5F5F5F5F5F5F5F5F5F5F5F5F5F5F5F5F5F5F5F5F5F5F5F5F5F5F5F5F5F5F5F5F5F5F5F5F5F5E2F5F5F5E2E2E2F5F5F5F5F5F5F5F5F5F5F5F5F5F5F5F5F5F5F5F5F5F5F5F5F5F5F5F5F5F5F5F5F5F5F5F5F5F5F5F5F5F5F5F5F5F5F5F5F5F5F5F5F5F5F5F5F5F5F5F5F5F5
310
F5F5F5F5F5F5F5F5F5F5F5F5F5F5F5F5F5F5F5F5F5F5F5F5F5F5F5F5F5F5F5F5F5F5F5F5F5F5F5F5F5F5F5F5F5F5F5F5F5F5F5F5F5F5F5F5F5F5F5F5F5F5F5F5F5F5F5F5F5F5F5F5F5F5F5F5F5F5F5F5F5F5F5F5F5F5F5F5F5F5F5F5F5F5F5F5F5F5F5F5F5F5F5F5F5F5F5F5F5F5F5F5F5F5F5E2E2E2F5F5F5F5F5F5F5F5F5
310
F5F5F5F5F5F5F5F5F5F5F5F5F5F5F5F5F5F5F5F5F5F5F5F5F5F5F5F5F5F5F5F5F5F5F5F5F5F5F5F5F5F5F5F5F5F5F5F5F5F5F5F5F5F5F5F5F5F5F5F5F5F5F5F5F5F5F5F5F5F5F5F5F5F5F5F5F5F5F5F5F5F5F5F5F5F5F5F5F5F5F5F5F5F5F5F5F5F5F5F5F5F5F5F5F5F5F5F5F5F5F5F5F5F5F5F5F5F5F5F5F5F5F5F5F5F5F5
310
F5F5F5F5F5F5F5F5F5F5F5F5F5F5F5F5F5F5F5F5F5F5F5F5F5F5F5F5F5F5F5F5F5F5F5F5F5F5F5F5F5E2E2E2F5F5F5F5F5F5F5F5F5F5F5F5F5F5F5F5F5F5F5F5F5F5F5F5F5F5F5F5F5F5F5F5F5F5F5F5F5F5F5F5F5F5F5F5F5F5F5F5F5F5F5F5F5F5F5F5F5F5F5F5F5F5F5F5F5F5F5F5F5F5F5F5F5F5F5F5F5F5F5F5F5F5F5
310
F5F5F5F5F5F5F5F5F5F5F5F5F5F5F5F5F5F5F5F5F5F5F5F5F5F5F5F5F5F5F5F5F5F5F5F5F5F5F5F5F5F5F5F5F5F5F5F5F5F5F5F5F5F5F5F5F5F5F5F5F5F5F5F5F5F5F5F5F5F5F5F5F5F5F5F5F5F5F5F5F5F5F5F5F5F5F5F5F5F5F5F5F5F5E2E2E2F5F5F5F5F5F5F5F5F5F5F5F5F5F5F5F5F5F5F5F5F5F5F5F5F5F5F5F5F5F5
310
F5F5F5F5F5F5F5F5F5F5F5F5F5F5F5F5F5F5F5F5F5F5F5F5F5F5F5F5F5F5F5F5F5F5F5F5F5F5F5F5F5F5F5F5F5F5F5F5F5F5F5F5F5F5F5F5F5F5F5F5F5F5F5F5F5F5F5F5F5F5F5F5F5F5F5F5F5F5F5F5F5F5F5F5F5F5F5F5F5F5F5F5F5F5F5F5F5F5F5F5F5F5F5F5F5F5F5F5F5F5F5F5F5F5F5F5F5F5F5F5F5F5F5F5F5F5F5
310
F5F5F5F5F5F5F5F5F5F5F5F5F5F5F5F5F5F5F5F5E2E2E2F5F5F5F5F5F5F5F5F5F5F5F5F5F5F5F5F5F5F5F5F5F5F5F5F5F5F5F5F5F5F5F5F5F5F5F5F5F5F5F5F5F5F5F5F5F5F5F5F5F5F5F5F5F5F5F5F5F5F5F5F5F5F5F5F5F5F5F5F5F5F5F5F5F5F5F5F5F5F5F5F5F5F5F5F5F5F5F5F5F5F5F5F5F5F5F5F5F5F5F5F5F5F5F5
310
F5F5F5F5F5F5F5F5F5F5F5F5F5F5F5F5F5F5F5F5F5F5F5F5F5F5F5F5F5F5F5F5F5F5F5F5F5F5F5F5F5F5F5F5F5F5F5F5F5F5F5F5F5F5F5F5F5F5F5F5F5F5F5F5F5F5F5F5F5F5F5F5F5E2E2E2F5F5F5F5F5F5F5F5F5F5F5F5F5F5F5F5F5F5F5F5F5F5F5F5F5F5F5F5F5F5F5F5F5F5F5F5F5F5F5F5F5F5F5F5F5F5F5F5F5F5F5
310
F5F5F5F5F5F5F5F5F5F5F5F5F5F5F5F5F5F5F5F5F5F5F5F5F5F5F5F5F5F5F5F5F5F5F5F5F5F5F5F5F5F5F5F5F5F5F5F5F5F5F5F5F5F5F5F5F5F5F5F5F5F5F5F5F5F5F5F5F5F5F5F5F5F5F5F5F5F5F5F5F5F5F5F5F5F5F5F5F5F5F5F5F5F5F5F5F5F5F5F5F5F5F5F5F5F5F5F5F5F5F5F5F5F5F5F5F5F5F5F5F5F5F5F5F5F5E2
310
E2E2F5F5F5F5F5F5F5F5F5F5F5F5F5F5F5F5F5F5F5F5F5F5F5F5F5F5F5F5F5F5F5F5F5F5F5F5F5F5F5F5F5F5F5F5F5F5F5F5F5F5F5F5F5F5F5F5F5F5F5F5F5F5F5F5F5F5F5F5F5F5F5F5F5F5F5F5F5F5F5F5F5F5F5F5F5F5F5F5F5F5F5F5F5F5F5F5F5F5F5F5F5F5F5F5F5F5F5F5F5F5F5F5F5F5F5F5F5F5F5F5F5F5F5F5F5
310
F5F5F5F5F5F5F5F5F5F5F5F5F5F5F5F5F5F5F5F5F5F5F5F5F5F5F5F5F5F5F5F5F5F5F5F5F5F5F5F5F5F5F5F5F5F5F5F5F5F5F5F5E2E2E2F5F5F5F5F5F5F5F5F5F5F5F5F5F5F5F5F5F5F5F5F5F5F5F5F5F5F5F5F5F5F5F5F5F5F5F5F5F5F5F5F5F5F5F5F5F5F5F5F5F5F5F5F5F5F5F5F5F5F5F5F5F5F5F5F5F5F5F5F5F5F5F5
310
F5F5F5F5F5F5F5F5F5F5F5F5F5F5F5F5F5F5F5F5F5F5F5F5F5F5F5F5F5F5F5F5F5F5F5F5F5F5F5F5F5F5F5F5F5F5F5F5F5F5F5F5F5F5F5F5F5F5F5F5F5F5F5F5F5F5F5F5F5F5F5F5F5F5F5F5F5F5F5F5F5F5F5F5F5F5F5F5F5F5F5F5F5F5F5F5F5F5F5F5F5F5F5F5F5E2E2E2F5F5F5F5F5F5F5F5F5F5F5F5F5F5F5F5F5F5F5
310
F5F5F5F5F5F5F5F5F5F5F5F5F5F5F5F5F5F5F5F5F5F5F5F5F5F5F5F5F5F5F5F5F5F5F5F5F5F5F5F5F5F5F5F5F5F5F5F5F5F5F5F5F5F5F5F5F5F5F5F5F5F5F5F5F5F5F5F5F5F5F5F5F5F5F5F5F5F5F5F5F5F5F5F5F5F5F5F5F5F5F5F5F5F5F5F5F5F5F5F5F5F5F5F5F5F5F5F5F5F5F5F5F5F5F5F5F5F5F5F5F5F5F5F5F5F5F5
310
F5F5F5F5F5F5F5F5F5F5F5F5F5F5F5F5F5F5F5F5F5F5F5F5F5F5F5F5F5F5F5E2E2E2F5F5F5F5F5F5F5F5F5F5F5F5F5F5F5F5F5F5F5F5F5F5F5F5F5F5F5F5F5F5F5F5F5F5F5F5F5F5F5F5F5F5F5F5F5F5F5F5F5F5F5F5F5F5F5F5F5F5F5F5F5F5F5F5F5F5F5F5F5F5F5F5F5F5F5F5F5F5F5F5F5F5F5F5F5F5F5F5F5F5F5F5F5
310
F5F5F5F5F5F5F5F5F5F5F5F5F5F5F5F5F5F5F5F5F5F5F5F5F5F5F5F5F5F5F5F5F5F5F5F5F5F5F5F5F5F5F5F5F5F5F5F5F5F5F5F5F5F5F5F5F5F5F5F5F5F5F5F5F5F5F5F5F5F5F5F5F5F5F5F5F5F5F5F5F5F5F5F5E2E2E2F5F5F5E2F5F5F5F5F5F5F5F5F5F5F5F5F5F5F5F5F5F5F5F5F5F5F5F5F5F5F5F5F5F5F5F5F5F5F5F5
310
F5F5F5F5F5F5F5F5F5F5F5F5F5F5F5F5F5F5F5F5F5F5F5F5F5F5F5F5F5F5F5F5F5F5F5F5F5F5F5F5F5F5F5F5F5F5F5F5F5F5F5F5F5F5F5F5F5F5F5F5F5F5F5F5F5F5F5F5F5F5F5F5F5F5F5F5F5F5F5F5F5F5F5F5F5F5F5F5F5F5F5F5F5F5F5F5F5F5F5F5F5F5F5F5F5F5F5F5F5F5F5F5F5F5F5F5F5F5F5F5F5F5F5F5F5F5F5
310
F5F5F5F5F5F5E2F5F5F5E2E2E2F5F5F5E2F5F5F5F5F5F5F5F5F5F5F5F5F5F5F5F5F5F5F5F5F5F5F5F5F5F5F5F5F5F5F5F5F5F5F5F5F5F5F5F5F5F5F5F5F5F5F5F5F5F5F5F5F5F5F5F5F5F5F5F5F5F5F5F5F5F5F5F5F5F5F5F5F5F5F5F5F5F5F5F5F5F5F5F5F5F5F5F5F5F5F5F5F5F5F5F5F5F5F5F5F5F5F5F5F5F5F5F5F5F5
310
F5F5F5F5F5F5F5F5F5F5F5F5F5F5F5F5F5F5F5F5F5F5F5F5F5F5F5F5F5F5F5F5F5F5F5F5F5F5F5F5F5F5F5F5F5F5F5F5F5F5F5F5F5F5F5F5F5F5F5E2F5F5F5E2E2E2F5F5F5E2F5F5F5F5F5F5F5F5F5F5F5F5F5F5F5F5F5F5F5F5F5F5F5F5F5F5F5F5F5F5F5F5F5F5F5F5F5F5F5F5F5F5F5F5F5F5F5F5F5F5F5F5F5F5F5F5F5
310
F5F5F5F5F5F5F5F5F5F5F5F5F5F5F5F5F5F5F5F5F5F5F5F5F5F5F5F5F5F5F5F5F5F5F5F5F5F5F5F5F5F5F5F5F5F5F5F5F5F5F5F5F5F5F5F5F5F5F5F5F5F5F5F5F5F5F5F5F5F5F5F5F5F5F5F5F5F5F5F5F5F5F5F5F5F5F5F5F5F5F5F5F5F5F5F5F5F5F5F5F5F5F5F5F5F5F5F5F5F5F5F5E2F5F5F5E2E2E2F5F5F5E2F5F5F5F5
310
F5F5F5F5F5F5F5F5F5F5F5F5F5F5F5F5F5F5F5F5F5F5F5F5F5F5F5F5F5F5F5F5F5F5F5F5F5F5F5F5F5F5F5F5F5F5F5F5F5F5F5F5F5F5F5F5F5F5F5F5F5F5F5F5F5F5F5F5F5F5F5F5F5F5F5F5F5F5F5F5F5F5F5F5F5F5F5F5F5F5F5F5F5F5F5F5F5F5F5F5F5F5F5F5F5F5F5F5F5F5F5F5F5F5F5F5F5F5F5F5F5F5F5F5F5F5F5
310
F5F5F5F5F5F5F5F5F5F5F5F5F5F5F5F5F5F5F5F5F5F5F5F5F5F5F5F5F5F5F5F5F5F5F5F5F5F5E2F5F5F5E2E2E2F5F5F5E2F5F5F5F5F5F5F5F5F5F5F5F5F5F5F5F5F5F5F5F5F5F5F5F5F5F5F5F5F5F5F5F5F5F5F5F5F5F5F5F5F5F5F5F5F5F5F5F5F5F5F5F5F5F5F5F5F5F5F5F5F5F5F5F5F5F5F5F5F5F5F5F5F5F5F5F5F5F5
310
F5F5F5F5F5F5F5F5F5F5F5F5F5F5F5F5F5F5F5F5F5F5F5F5F5F5F5F5F5F5F5F5F5F5F5F5F5F5F5F5F5F5F5F5F5F5F5F5F5F5F5F5F5F5F5F5F5F5F5F5F5F5F5F5F5F5F5F5F5F5F5F5F5F5F5F5F5F5F5F5F5F5F5F5F5F5F5F5F5F5F5E2F5F5F5E2E2E2F5F5F5E2F5F5F5F5F5F5F5F5F5F5F5F5F5F5F5F5F5F5F5F5F5F5F5F5F5
310
F5F5F5F5F5F5F5F5F5F5F5F5F5F5F5F5F5F5F5F5F5F5F5F5F5F5F5F5F5F5F5F5F5F5F5F5F5F5F5F5F5F5F5F5F5F5F5F5F5F5F5F5F5F5F5F5F5F5F5F5F5F5F5F5F5F5F5F5F5F5F5F5F5F5F5F5F5F5F5F5F5F5F5F5F5F5F5F5F5F5F5F5F5F5F5F5F5F5F5F5F5F5F5F5F5F5F5F5F5F5F5F5F5F5F5F5F5F5F5F5F5F5F5F5F5F5F5
310
F5F5F5F5F5F5F5F5F5F5F5F5F5F5F5F5F5E2F5F5F5E2E2E2F5F5F5E2F5F5F5F5F5F5F5F5F5F5F5F5F5F5F5F5F5F5F5F5F5F5F5F5F5F5F5F5F5F5F5F5F5F5F5F5F5F5F5F5F5F5F5F5F5F5F5F5F5F5F5F5F5F5F5F5F5F5F5F5F5F5F5F5F5F5F5F5F5F5F5F5F5F5F5F5F5F5F5F5F5F5F5F5F5F5F5F5F5F5F5F5F5F5F5F5F5F5F5
310
F5F5F5F5F5F5F5F5F5F5F5F5F5F5F5F5F5F5F5F5F5F5F5F5F5F5F5F5F5F5F5F5F5F5F5F5F5F5F5F5F5F5F5F5F5F5F5F5F5F5F5F5F5F5F5F5F5F5F5F5F5F5F5F5F5F5F5F5F5F5E2F5F5F5E2E2E2F5F5F5E2F5F5F5F5F5F5F5F5F5F5F5F5F5F5F5F5F5F5F5F5F5F5F5F5F5F5F5F5F5F5F5F5F5F5F5F5F5F5F5F5F5F5F5F5F5F5
310
F5F5F5F5F5F5F5F5F5F5F5F5F5F5F5F5F5F5F5F5F5F5F5F5F5F5F5F5F5F5F5F5F5F5F5F5F5F5F5F5F5F5F5F5F5F5F5F5F5F5F5F5F5F5F5F5F5F5F5F5F5F5F5F5F5F5F5F5F5F5F5F5F5F5F5F5F5F5F5F5F5F5F5F5F5F5F5F5F5F5F5F5F5F5F5F5F5F5F5F5F5F5F5F5F5F5F5F5F5F5F5F5F5F5F5F5F5F5F5F5F5F5F5E2F5F5F5
310
E2E2E2F5F5F5E2F5F5F5F5F5F5F5F5F5F5F5F5F5F5F5F5F5F5F5F5F5F5F5F5F5F5F5F5F5F5F5F5F5F5F5F5F5F5F5F5F5F5F5F5F5F5F5F5F5F5F5F5F5F5F5F5F5F5F5F5F5F5F5F5F5F5F5F5F5F5F5F5F5F5F5F5F5F5F5F5F5F5F5F5F5F5F5F5F5F5F5F5F5F5F5F5F5F5F5F5F5F5F5F5F5F5F5F5F5F5F5F5F5F5F5F5F5F5F5F5
310
F5F5F5F5F5F5F5F5F5F5F5F5F5F5F5F5F5F5F5F5F5F5F5F5F5F5F5F5F5F5F5F5F5F5F5F5F5F5F5F5F5F5F5F5F5F5F5F5F5E2F5F5F5E2E2E2F5F5F5E2F5F5F5F5F5F5F5F5F5F5F5F5F5F5F5F5F5F5F5F5F5F5F5F5F5F5F5F5F5F5F5F5F5F5F5F5F5F5F5F5F5F5F5F5F5F5F5F5F5F5F5F5F5F5F5F5F5F5F5F5F5F5F5F5F5F5F5
310
F5F5F5F5F5F5F5F5F5F5F5F5F5F5F5F5F5F5F5F5F5F5F5F5F5F5F5F5F5F5F5F5F5F5F5F5F5F5F5F5F5F5F5F5F5F5F5F5F5F5F5F5F5F5F5F5F5F5F5F5F5F5F5F5F5F5F5F5F5F5F5F5F5F5F5F5F5F5F5F5F5F5F5F5F5F5F5F5F5F5F5F5F5F5F5F5F5F5F5F5F5F5E2F5F5F5E2E2E2F5F5F5E2F5F5F5F5F5F5F5F5F5F5F5F5F5F5
310
F5F5F5F5F5F5F5F5F5F5F5F5F5F5F5F5F5F5F5F5F5F5F5F5F5F5F5F5F5F5F5F5F5F5F5F5F5F5F5F5F5F5F5F5F5F5F5F5F5F5F5F5F5F5F5F5F5F5F5F5F5F5F5F5F5F5F5F5F5F5F5F5F5F5F5F5F5F5F5F5F5F5F5F5F5F5F5F5F5F5F5F5F5F5F5F5F5F5F5F5F5F5F5F5F5F5F5F5F5F5F5F5F5F5F5F5F5F5F5F5F5F5F5F5F5F5F5
310
F5F5F5F5F5F5F5F5F5F5F5F5F5F5F5F5F5F5F5F5F5F5F5F5F5F5F5F5E2F5F5F5E2E2E2F5F5F5E2F5F5F5F5F5F5F5F5F5F5F5F5F5F5F5F5F5F5F5F5F5F5F5F5F5F5F5F5F5F5F5F5F5F5F5F5F5F5F5F5F5F5F5F5F5F5F5F5F5F5F5F5F5F5F5F5F5F5F5F5F5F5F5F5F5F5F5F5F5F5F5F5F5F5F5F5F5F5F5F5F5F5F5F5F5F5F5F5
310
F5F5F5F5F5F5F5F5F5F5F5F5F5F5F5F5F5F5F5F5F5F5F5F5F5F5F5F5F5F5F5F5F5F5F5F5F5F5F5F5F5F5F5F5F5F5F5F5F5F5F5F5F5F5F5F5F5F5F5F5F5F5F5F5F5F5F5F5F5F5F5F5F5F5F5F5F5F5F5F5F5E2F5F5F5E2E2E2F5F5F5E2F5F5F5F5F5F5F5F5F5F5F5F5F5F5F5F5F5F5F5F5F5F5F5F5F5F5F5F5F5F5F5F5F5F5F5
310
F5F5F5F5F5F5F5F5F5F5F5F5F5F5F5F5F5F5F5F5F5F5F5F5F5F5F5F5F5F5F5F5F5F5F5F5F5F5F5F5F5F5F5F5F5F5F5F5F5F5F5F5F5F5F5F5F5F5F5F5F5F5F5F5F5F5F5F5F5F5F5F5F5F5F5F5F5F5F5F5F5F5F5F5F5F5F5F5F5F5F5F5F5F5F5F5F5F5F5F5F5F5F5F5F5F5F5F5F5F5F5F5F5F5F5F5F5F5F5F5F5F5F5F5F5F5F5
310
F5F5F5F5F5F5F5E2F5F5F5E2E2E2F5F5F5E2F5F5F5F5F5F5F5F5F5F5F5F5F5F5F5F5F5F5F5F5F5F5F5F5F5F5F5F5F5F5F5F5F5F5F5F5F5F5F5F5F5F5F5F5F5F5F5F5F5F5F5F5F5F5F5F5F5F5F5F5F5F5F5F5F5F5F5F5F5F5F5F5F5F5F5F5F5F5F5F5F5F5F5F5F5F5F5F5F5F5F5F5F5F5F5F5F5F5F5F5F5F5F5F5F5F5F5F5F5
310
F5F5F5F5F5F5F5F5F5F5F5F5F5F5F5F5F5F5F5F5F5F5F5F5F5F5F5F5F5F5F5F5F5F5F5F5F5F5F5F5F5F5F5F5F5F5F5F5F5F5F5F5F5F5F5F5F5F5F5F5E2F5F5F5E2E2E2F5F5F5E2F5F5F5F5F5F5F5F5F5F5F5F5F5F5F5F5F5F5F5F5F5F5F5F5F5F5F5F5F5F5F5F5F5F5F5F5F5F5F5F5F5F5F5F5F5F5F5F5F5F5F5F5F5F5F5F5
310
F5F5F5F5F5F5F5F5F5F5F5F5F5F5F5F5F5F5F5F5F5F5F5F5F5F5F5F5F5F5F5F5F5F5F5F5F5F5F5F5F5F5F5F5F5F5F5F5F5F5F5F5F5F5F5F5F5F5F5F5F5F5F5F5F5F5F5F5F5F5F5F5F5F5F5F5F5F5F5F5F5F5F5F5F5F5F5F5F5F5F5F5F5F5F5F5F5F5F5F5F5F5F5F5F5F5F5F5F5F5F5F5F5E2F5F5F5E2E2E2F5F5F5E2F5F5F5
310
F5F5F5F5F5F5F5F5F5F5F5F5F5F5F5F5F5F5F5F5F5F5F5F5F5F5F5F5F5F5F5F5F5F5F5F5F5F5F5F5F5F5F5F5F5F5F5F5F5F5F5F5F5F5F5F5F5F5F5F5F5F5F5F5F5F5F5F5F5F5F5F5F5F5F5F5F5F5F5F5F5F5F5F5F5F5F5F5F5F5F5F5F5F5F5F5F5F5F5F5F5F5F5F5F5F5F5F5F5F5F5F5F5F5F5F5F5F5F5F5F5F5F5F5F5F5F5
310
F5F5F5F5F5F5F5F5F5F5F5F5F5F5F5F5F5F5F5F5F5F5F5F5F5F5F5F5F5F5F5F5F5F5F5F5F5F5F5E2F5F5F5E2E2E2F5F5F5F5F5F5F5F5F5F5F5F5F5F5F5F5F5F5F5F5F5F5F5F5F5F5F5F5F5F5F5F5F5F5F5F5F5F5F5F5F5F5F5F5F5F5F5F5F5F5F5F5F5F5F5F5F5F5F5F5F5F5F5F5F5F5F5F5F5F5F5F5F5F5F5F5F5F5F5F5F5
310
F5F5F5F5F5F5F5F5F5F5F5F5F5F5F5F5F5F5F5F5F5F5F5F5F5F5F5F5F5F5F5F5F5F5F5F5F5F5F5F5F5F5F5F5F5F5F5F5F5F5F5F5F5F5F5F5F5F5F5F5F5F5F5F5F5F5F5F5F5F5F5F5F5F5F5F5F5F5F5F5F5F5F5F5F5F5F5F5F5F5F5F5F5F5F5F5E2E2E2F5F5F5F5F5F5F5F5F5F5F5F5F5F5F5F5F5F5F5F5F5F5F5F5F5F5F5F5
310
F5F5F5F5F5F5F5F5F5F5F5F5F5F5F5F5F5F5F5F5F5F5F5F5F5F5F5F5F5F5F5F5F5F5F5F5F5F5F5F5F5F5F5F5F5F5F5F5F5F5F5F5F5F5F5F5F5F5F5F5F5F5F5F5F5F5F5F5F5F5F5F5F5F5F5F5F5F5F5F5F5F5F5F5F5F5F5F5F5F5F5F5F5F5F5F5F5F5F5F5F5F5F5F5F5F5F5F5F5F5F5F5F5F5F5F5F5F5F5F5F5F5F5F5F5F5F5
310
F5F5F5F5F5F5F5F5F5F5F5F5F5F5F5F5F5F5F5F5F5F5E2E2E2F5F5F5F5F5F5F5F5F5F5F5F5F5F5F5F5F5F5F5F5F5F5F5F5F5F5F5F5F5F5F5F5F5F5F5F5F5F5F5F5F5F5F5F5F5F5F5F5F5F5F5F5F5F5F5F5F5F5F5F5F5F5F5F5F5F5F5F5F5F5F5F5F5F5F5F5F5F5F5F5F5F5F5F5F5F5F5F5F5F5F5F5F5F5F5F5F5F5F5F5F5F5
310
F5F5F5F5F5F5F5F5F5F5F5F5F5F5F5F5F5F5F5F5F5F5F5F5F5F5F5F5F5F5F5F5F5F5F5F5F5F5F5F5F5F5F5F5F5F5F5F5F5F5F5F5F5F5F5F5F5F5F5F5F5F5F5F5F5F5F5F5F5F5F5F5F5F5F5E2E2E2F5F5F5F5F5F5F5F5F5F5F5F5F5F5F5F5F5F5F5F5F5F5F5F5F5F5F5F5F5F5F5F5F5F5F5F5F5F5F5F5F5F5F5F5F5F5F5F5F5
310
F5F5F5F5F5F5F5F5F5F5F5F5F5F5F5F5F5F5F5F5F5F5F5F5F5F5F5F5F5F5F5F5F5F5F5F5F5F5F5F5F5F5F5F5F5F5F5F5F5F5F5F5F5F5F5F5F5F5F5F5F5F5F5F5F5F5F5F5F5F5F5F5F5F5F5F5F5F5F5F5F5F5F5F5F5F5F5F5F5F5F5F5F5F5F5F5F5F5F5F5F5F5F5F5F5F5F5F5F5F5F5F5F5F5F5F5F5F5F5F5F5F5F5F5F5F5F5
310
F5E2E2E2F5F5F5F5F5F5F5F5F5F5F5F5F5F5F5F5F5F5F5F5F5F5F5F5F5F5F5F5F5F5F5F5F5F5F5F5F5F5F5F5F5F5F5F5F5F5F5F5F5F5F5F5F5F5F5F5F5F5F5F5F5F5F5F5F5F5F5F5F5F5F5F5F5F5F5F5F5F5F5F5F5F5F5F5F5F5F5F5F5F5F5F5F5F5F5F5F5F5F5F5F5F5F5F5F5F5F5F5F5F5F5F5F5F5F5F5F5F5F5F5F5F5F5
310
F5F5F5F5F5F5F5F5F5F5F5F5F5F5F5F5F5F5F5F5F5F5F5F5F5F5F5F5F5F5F5F5F5F5F5F5F5F5F5F5F5F5F5F5F5F5F5F5F5F5F5F5F5F5E2E2E2F5F5F5F5F5F5F5F5F5F5F5F5F5F5F5F5F5F5F5F5F5F5F5F5F5F5F5F5F5F5F5F5F5F5F5F5F5F5F5F5F5F5F5F5F5F5F5F5F5F5F5F5F5F5F5F5F5F5F5F5F5F5F5F5F5F5F5F5F5F5
310
F5F5F5F5F5F5F5F5F5F5F5F5F5F5F5F5F5F5F5F5F5F5F5F5F5F5F5F5F5F5F5F5F5F5F5F5F5F5F5F5F5F5F5F5F5F5F5F5F5F5F5F5F5F5F5F5F5F5F5F5F5F5F5F5F5F5F5F5F5F5F5F5F5F5F5F5F5F5F5F5F5F5F5F5F5F5F5F5F5F5F5F5F5F5F5F5F5F5F5F5F5F5F5F5F5F5F5E2E2E2F5F5F5F5F5F5F5F5F5F5F5F5F5F5F5F5F5
310
F5F5F5F5F5F5F5F5F5F5F5F5F5F5F5F5F5F5F5F5F5F5F5F5F5F5F5F5F5F5F5F5F5F5F5F5F5F5F5F5F5F5F5F5F5F5F5F5F5F5F5F5F5F5F5F5F5F5F5F5F5F5F5F5F5F5F5F5F5F5F5F5F5F5F5F5F5F5F5F5F5F5F5F5F5F5F5F5F5F5F5F5F5F5F5F5F5F5F5F5F5F5F5F5F5F5F5F5F5F5F5F5F5F5F5F5F5F5F5F5F5F5F5F5F5F5F5
310
F5F5F5F5F5F5F5F5F5F5F5F5F5F5F5F5F5F5F5F5F5F5F5F5F5F5F5F5F5F5F5F5F5E2E2E2F5F5F5F5F5F5F5F5F5F5F5F5F5F5F5F5F5F5F5F5F5F5F5F5F5F5F5F5F5F5F5F5F5F5F5F5F5F5F5F5F5F5F5F5F5F5F5F5F5F5F5F5F5F5F5F5F5F5F5F5F5F5F5F5F5F5F5F5F5F5F5F5F5F5F5F5F5F5F5F5F5F5F5F5F5F5F5F5F5F5F5
310
F5F5F5F5F5F5F5F5F5F5F5F5F5F5F5F5F5F5F5F5F5F5F5F5F5F5F5F5F5F5F5F5F5F5F5F5F5F5F5F5F5F5F5F5F5F5F5F5F5F5F5F5F5F5F5F5F5F5F5F5F5F5F5F5F5F5F5F5F5F5F5F5F5F5F5F5F5F5F5F5F5F5F5F5F5F5E2E2E2F5F5F5F5F5F5F5F5F5F5F5F5F5F5F5F5F5F5F5F5F5F5F5F5F5F5F5F5F5F5F5F5F5F5F5F5F5F5
310
F5F5F5F5F5F5F5F5F5F5F5F5F5F5F5F5F5F5F5F5F5F5F5F5F5F5F5F5F5F5F5F5F5F5F5F5F5F5F5F5F5F5F5F5F5F5F5F5F5F5F5F5F5F5F5F5F5F5F5F5F5F5F5F5F5F5F5F5F5F5F5F5F5F5F5F5F5F5F5F5F5F5F5F5F5F5F5F5F5F5F5F5F5F5F5F5F5F5F5F5F5F5F5F5F5F5F5F5F5F5F5F5F5F5F5F5F5F5F5F5F5F5F5F5F5F5F5
310
F5F5F5F5F5F5F5F5F5F5F5F5E2E2E2F5F5F5E2F5F5F5F5F5F5F5F5F5F5F5F5F5F5F5F5F5F5F5F5F5F5F5F5F5F5F5F5F5F5F5F5F5F5F5F5F5F5F5F5F5F5F5F5F5F5F5F5F5F5F5F5F5F5F5F5F5F5F5F5F5F5F5F5F5F5F5F5F5F5F5F5F5F5F5F5F5F5F5F5F5F5F5F5F5F5F5F5F5F5F5F5F5F5F5F5F5F5F5F5F5F5F5F5F5F5F5F5
310
F5F5F5F5F5F5F5F5F5F5F5F5F5F5F5F5F5F5F5F5F5F5F5F5F5F5F5F5F5F5F5F5F5F5F5F5F5F5F5F5F5F5F5F5F5F5F5F5F5F5F5F5F5F5F5F5F5F5F5F5F5E2F5F5F5E2E2E2F5F5F5E2F5F5F5F5F5F5F5F5F5F5F5F5F5F5F5F5F5F5F5F5F5F5F5F5F5F5F5F5F5F5F5F5F5F5F5F5F5F5F5F5F5F5F5F5F5F5F5F5F5F5F5F5F5F5F5
310
F5F5F5F5F5F5F5F5F5F5F5F5F5F5F5F5F5F5F5F5F5F5F5F5F5F5F5F5F5F5F5F5F5F5F5F5F5F5F5F5F5F5F5F5F5F5F5F5F5F5F5F5F5F5F5F5F5F5F5F5F5F5F5F5F5F5F5F5F5F5F5F5F5F5F5F5F5F5F5F5F5F5F5F5F5F5F5F5F5F5F5F5F5F5F5F5F5F5F5F5F5F5F5F5F5F5F5F5F5F5F5F5F5F5E2F5F5F5E2E2E2F5F5F5E2F5F5
310
F5F5F5F5F5F5F5F5F5F5F5F5F5F5F5F5F5F5F5F5F5F5F5F5F5F5F5F5F5F5F5F5F5F5F5F5F5F5F5F5F5F5F5F5F5F5F5F5F5F5F5F5F5F5F5F5F5F5F5F5F5F5F5F5F5F5F5F5F5F5F5F5F5F5F5F5F5F5F5F5F5F5F5F5F5F5F5F5F5F5F5F5F5F5F5F5F5F5F5F5F5F5F5F5F5F5F5F5F5F5F5F5F5F5F5F5F5F5F5F5F5F5F5F5F5F5F5
310
F5F5F5F5F5F5F5F5F5F5F5F5F5F5F5F5F5F5F5F5F5F5F5F5F5F5F5F5F5F5F5F5F5F5F5F5F5F5F5F5E2F5F5F5E2E2E2F5F5F5E2F5F5F5F5F5F5F5F5F5F5F5F5F5F5F5F5F5F5F5F5F5F5F5F5F5F5F5F5F5F5F5F5F5F5F5F5F5F5F5F5F5F5F5F5F5F5F5F5F5F5F5F5F5F5F5F5F5F5F5F5F5F5F5F5F5F5F5F5F5F5F5F5F5F5F5F5
310
F5F5F5F5F5F5F5F5F5F5F5F5F5F5F5F5F5F5F5F5F5F5F5F5F5F5F5F5F5F5F5F5F5F5F5F5F5F5F5F5F5F5F5F5F5F5F5F5F5F5F5F5F5F5F5F5F5F5F5F5F5F5F5F5F5F5F5F5F5F5F5F5F5F5F5F5F5F5F5F5F5F5F5F5F5F5F5F5F5F5F5F5F5E2F5F5F5E2E2E2F5F5F5E2F5F5F5F5F5F5F5F5F5F5F5F5F5F5F5F5F5F5F5F5F5F5F5
310
F5F5F5F5F5F5F5F5F5F5F5F5F5F5F5F5F5F5F5F5F5F5F5F5F5F5F5F5F5F5F5F5F5F5F5F5F5F5F5F5F5F5F5F5F5F5F5F5F5F5F5F5F5F5F5F5F5F5F5F5F5F5F5F5F5F5F5F5F5F5F5F5F5F5F5F5F5F5F5F5F5F5F5F5F5F5F5F5F5F5F5F5F5F5F5F5F5F5F5F5F5F5F5F5F5F5F5F5F5F5F5F5F5F5F5F5F5F5F5F5F5F5F5F5F5F5F5
310
F5F5F5F5F5F5F5F5F5F5F5F5F5F5F5F5F5F5F5E2F5F5F5E2E2E2F5F5F5E2F5F5F5F5F5F5F5F5F5F5F5F5F5F5F5F5F5F5F5F5F5F5F5F5F5F5F5F5F5F5F5F5F5F5F5F5F5F5F5F5F5F5F5F5F5F5F5F5F5F5F5F5F5F5F5F5F5F5F5F5F5F5F5F5F5F5F5F5F5F5F5F5F5F5F5F5F5F5F5F5F5F5F5F5F5F5F5F5F5F5F5F5F5F5F5F5F5
310
F5F5F5F5F5F5F5F5F5F5F5F5F5F5F5F5F5F5F5F5F5F5F5F5F5F5F5F5F5F5F5F5F5F5F5F5F5F5F5F5F5F5F5F5F5F5F5F5F5F5F5F5F5F5F5F5F5F5F5F5F5F5F5F5F5F5F5F5F5F5F5F5E2F5F5F5E2E2E2F5F5F5E2F5F5F5F5F5F5F5F5F5F5F5F5F5F5F5F5F5F5F5F5F5F5F5F5F5F5F5F5F5F5F5F5F5F5F5F5F5F5F5F5F5F5F5F5
310
F5F5F5F5F5F5F5F5F5F5F5F5F5F5F5F5F5F5F5F5F5F5F5F5F5F5F5F5F5F5F5F5F5F5F5F5F5F5F5F5F5F5F5F5F5F5F5F5F5F5F5F5F5F5F5F5F5F5F5F5F5F5F5F5F5F5F5F5F5F5F5F5F5F5F5F5F5F5F5F5F5F5F5F5F5F5F5F5F5F5F5F5F5F5F5F5F5F5F5F5F5F5F5F5F5F5F5F5F5F5F5F5F5F5F5F5F5F5F5F5F5F5F5F5F5E2F5
310
F5F5E2E2E2F5F5F5E2F5F5F5F5F5F5F5F5F5F5F5F5F5F5F5F5F5F5F5F5F5F5F5F5F5F5F5F5F5F5F5F5F5F5F5F5F5F5F5F5F5F5F5F5F5F5F5F5F5F5F5F5F5F5F5F5F5F5F5F5F5F5F5F5F5F5F5F5F5F5F5F5F5F5F5F5F5F5F5F5F5F5F5F5F5F5F5F5F5F5F5F5F5F5F5F5F5F5F5F5F5F5F5F5F5F5F5F5F5F5F5F5F5F5F5F5F5F5
310
F5F5F5F5F5F5F5F5F5F5F5F5F5F5F5F5F5F5F5F5F5F5F5F5F5F5F5F5F5F5F5F5F5F5F5F5F5F5F5F5F5F5F5F5F5F5F5F5F5F5F5E2F5F5F5E2E2E2F5F5F5E2F5F5F5F5F5F5F5F5F5F5F5F5F5F5F5F5F5F5F5F5F5F5F5F5F5F5F5F5F5F5F5F5F5F5F5F5F5F5F5F5F5F5F5F5F5F5F5F5F5F5F5F5F5F5F5F5F5F5F5F5F5F5F5F5F5
310
F5F5F5F5F5F5F5F5F5F5F5F5F5F5F5F5F5F5F5F5F5F5F5F5F5F5F5F5F5F5F5F5F5F5F5F5F5F5F5F5F5F5F5F5F5F5F5F5F5F5F5F5F5F5F5F5F5F5F5F5F5F5F5F5F5F5F5F5F5F5F5F5F5F5F5F5F5F5F5F5F5F5F5F5F5F5F5F5F5F5F5F5F5F5F5F5F5F5F5F5F5F5F5F5E2F5F5F5E2E2E2F5F5F5E2F5F5F5F5F5F5F5F5F5F5F5F5
310
F5F5F5F5F5F5F5F5F5F5F5F5F5F5F5F5F5F5F5F5F5F5F5F5F5F5F5F5F5F5F5F5F5F5F5F5F5F5F5F5F5F5F5F5F5F5F5F5F5F5F5F5F5F5F5F5F5F5F5F5F5F5F5F5F5F5F5F5F5F5F5F5F5F5F5F5F5F5F5F5F5F5F5F5F5F5F5F5F5F5F5F5F5F5F5F5F5F5F5F5F5F5F5F5F5F5F5F5F5F5F5F5F5F5F5F5F5F5F5F5F5F5F5F5F5F5F5
310
F5F5F5F5F5F5F5F5F5F5F5F5F5F5F5F5F5F5F5F5F5F5F5F5F5F5F5F5F5F5E2F5F5F5E2E2E2F5F5F5E2F5F5F5F5F5F5F5F5F5F5F5F5F5F5F5F5F5F5F5F5F5F5F5F5F5F5F5F5F5F5F5F5F5F5F5F5F5F5F5F5F5F5F5F5F5F5F5F5F5F5F5F5F5F5F5F5F5F5F5F5F5F5F5F5F5F5F5F5F5F5F5F5F5F5F5F5F5F5F5F5F5F5F5F5F5F5
310
F5F5F5F5F5F5F5F5F5F5F5F5F5F5F5F5F5F5F5F5F5F5F5F5F5F5F5F5F5F5F5F5F5F5F5F5F5F5F5F5F5F5F5F5F5F5F5F5F5F5F5F5F5F5F5F5F5F5F5F5F5F5F5F5F5F5F5F5F5F5F5F5F5F5F5F5F5F5F5F5F5F5F5E2F5F5F5E2E2E2F5F5F5E2F5F5F5F5F5F5F5F5F5F5F5F5F5F5F5F5F5F5F5F5F5F5F5F5F5F5F5F5F5F5F5F5F5
310
F5F5F5F5F5F5F5F5F5F5F5F5F5F5F5F5F5F5F5F5F5F5F5F5F5F5F5F5F5F5F5F5F5F5F5F5F5F5F5F5F5F5F5F5F5F5F5F5F5F5F5F5F5F5F5F5F5F5F5F5F5F5F5F5F5F5F5F5F5F5F5F5F5F5F5F5F5F5F5F5F5F5F5F5F5F5F5F5F5F5F5F5F5F5F5F5F5F5F5F5F5F5F5F5F5F5F5F5F5F5F5F5F5F5F5F5F5F5F5F5F5F5F5F5F5F5F5
310
F5F5F5F5F5F5F5F5F5E2F5F5F5E2E2E2F5F5F5E2F5F5F5F5F5F5F5F5F5F5F5F5F5F5F5F5F5F5F5F5F5F5F5F5F5F5F5F5F5F5F5F5F5F5F5F5F5F5F5F5F5F5F5F5F5F5F5F5F5F5F5F5F5F5F5F5F5F5F5F5F5F5F5F5F5F5F5F5F5F5F5F5F5F5F5F5F5F5F5F5F5F5F5F5F5F5F5F5F5F5F5F5F5F5F5F5F5F5F5F5F5F5F5F5F5F5F5
310
F5F5F5F5F5F5F5F5F5F5F5F5F5F5F5F5F5F5F5F5F5F5F5F5F5F5F5F5F5F5F5F5F5F5F5F5F5F5F5F5F5F5F5F5F5F5F5F5F5F5F5F5F5F5F5F5F5F5F5F5F5F5E2F5F5F5E2E2E2F5F5F5E2F5F5F5F5F5F5F5F5F5F5F5F5F5F5F5F5F5F5F5F5F5F5F5F5F5F5F5F5F5F5F5F5F5F5F5F5F5F5F5F5F5F5F5F5F5F5F5F5F5F5F5F5F5F5
310
F5F5F5F5F5F5F5F5F5F5F5F5F5F5F5F5F5F5F5F5F5F5F5F5F5F5F5F5F5F5F5F5F5F5F5F5F5F5F5F5F5F5F5F5F5F5F5F5F5F5F5F5F5F5F5F5F5F5F5F5F5F5F5F5F5F5F5F5F5F5F5F5F5F5F5F5F5F5F5F5F5F5F5F5F5F5F5F5F5F5F5F5F5F5F5F5F5F5F5F5F5F5F5F5F5F5F5F5F5F5F5F5F5F5F5E2F5F5F5E2E2E2F5F5F5E2F5
310
F5F5F5F5F5F5F5F5F5F5F5F5F5F5F5F5F5F5F5F5F5F5F5F5F5F5F5F5F5F5F5F5F5F5F5F5F5F5F5F5F5F5F5F5F5F5F5F5F5F5F5F5F5F5F5F5F5F5F5F5F5F5F5F5F5F5F5F5F5F5F5F5F5F5F5F5F5F5F5F5F5F5F5F5F5F5F5F5F5F5F5F5F5F5F5F5F5F5F5F5F5F5F5F5F5F5F5F5F5F5F5F5F5F5F5F5F5F5F5F5F5F5F5F5F5F5F5
310
F5F5F5F5F5F5F5F5F5F5F5F5F5F5F5F5F5F5F5F5F5F5F5F5F5F5F5F5F5F5F5F5F5F5F5F5F5F5F5F5F5E2F5F5F5E2E2E2F5F5F5E2F5F5F5F5F5F5F5F5F5F5F5F5F5F5F5F5F5F5F5F5F5F5F5F5F5F5F5F5F5F5F5F5F5F5F5F5F5F5F5F5F5F5F5F5F5F5F5F5F5F5F5F5F5F5F5F5F5F5F5F5F5F5F5F5F5F5F5F5F5F5F5F5F5F5F5
310
F5F5F5F5F5F5F5F5F5F5F5F5F5F5F5F5F5F5F5F5F5F5F5F5F5F5F5F5F5F5F5F5F5F5F5F5F5F5F5F5F5F5F5F5F5F5F5F5F5F5F5F5F5F5F5F5F5F5F5F5F5F5F5F5F5F5F5F5F5F5F5F5F5F5F5F5F5F5F5F5F5F5F5F5F5F5F5F5F5F5F5F5F5F5E2F5F5F5E2E2E2F5F5F5E2F5F5F5F5F5F5F5F5F5F5F5F5F5F5F5F5F5F5F5F5F5F5
310
F5F5F5F5F5F5F5F5F5F5F5F5F5F5F5F5F5F5F5F5F5F5F5F5F5F5F5F5F5F5F5F5F5F5F5F5F5F5F5F5F5F5F5F5F5F5F5F5F5F5F5F5F5F5F5F5F5F5F5F5F5F5F5F5F5F5F5F5F5F5F5F5F5F5F5F5F5F5F5F5F5F5F5F5F5F5F5F5F5F5F5F5F5F5F5F5F5F5F5F5F5F5F5F5F5F5F5F5F5F5F5F5F5F5F5F5F5F5F5F5F5F5F5F5F5F5F5
310
F5F5F5F5F5F5F5F5F5F5F5F5F5F5F5F5F5F5F5F5E2F5F5F5E2E2E2F5F5F5F5F5F5F5F5F5F5F5F5F5F5F5F5F5F5F5F5F5F5F5F5F5F5F5F5F5F5F5F5F5F5F5F5F5F5F5F5F5F5F5F5F5F5F5F5F5F5F5F5F5F5F5F5F5F5F5F5F5F5F5F5F5F5F5F5F5F5F5F5F5F5F5F5F5F5F5F5F5F5F5F5F5F5F5F5F5F5F5F5F5F5F5F5F5F5F5F5
310
F5F5F5F5F5F5F5F5F5F5F5F5F5F5F5F5F5F5F5F5F5F5F5F5F5F5F5F5F5F5F5F5F5F5F5F5F5F5F5F5F5F5F5F5F5F5F5F5F5F5F5F5F5F5F5F5F5F5F5F5F5F5F5F5F5F5F5F5F5F5F5F5F5F5F5F5F5E2E2E2F5F5F5F5F5F5F5F5F5F5F5F5F5F5F5F5F5F5F5F5F5F5F5F5F5F5F5F5F5F5F5F5F5F5F5F5F5F5F5F5F5F5F5F5F5F5F5
310
F5F5F5F5F5F5F5F5F5F5F5F5F5F5F5F5F5F5F5F5F5F5F5F5F5F5F5F5F5F5F5F5F5F5F5F5F5F5F5F5F5F5F5F5F5F5F5F5F5F5F5F5F5F5F5F5F5F5F5F5F5F5F5F5F5F5F5F5F5F5F5F5F5F5F5F5F5F5F5F5F5F5F5F5F5F5F5F5F5F5F5F5F5F5F5F5F5F5F5F5F5F5F5F5F5F5F5F5F5F5F5F5F5F5F5F5F5F5F5F5F5F5F5F5F5F5F5
310
F5F5F5E2E2E2F5F5F5F5F5F5F5F5F5F5F5F5F5F5F5F5F5F5F5F5F5F5F5F5F5F5F5F5F5F5F5F5F5F5F5F5F5F5F5F5F5F5F5F5F5F5F5F5F5F5F5F5F5F5F5F5F5F5F5F5F5F5F5F5F5F5F5F5F5F5F5F5F5F5F5F5F5F5F5F5F5F5F5F5F5F5F5F5F5F5F5F5F5F5F5F5F5F5F5F5F5F5F5F5F5F5F5F5F5F5F5F5F5F5F5F5F5F5F5F5F5
310
F5F5F5F5F5F5F5F5F5F5F5F5F5F5F5F5F5F5F5F5F5F5F5F5F5F5F5F5F5F5F5F5F5F5F5F5F5F5F5F5F5F5F5F5F5F5F5F5F5F5F5F5F5F5F5F5E2E2E2F5F5F5F5F5F5F5F5F5F5F5F5F5F5F5F5F5F5F5F5F5F5F5F5F5F5F5F5F5F5F5F5F5F5F5F5F5F5F5F5F5F5F5F5F5F5F5F5F5F5F5F5F5F5F5F5F5F5F5F5F5F5F5F5F5F5F5F5
310
F5F5F5F5F5F5F5F5F5F5F5F5F5F5F5F5F5F5F5F5F5F5F5F5F5F5F5F5F5F5F5F5F5F5F5F5F5F5F5F5F5F5F5F5F5F5F5F5F5F5F5F5F5F5F5F5F5F5F5F5F5F5F5F5F5F5F5F5F5F5F5F5F5F5F5F5F5F5F5F5F5F5F5F5F5F5F5F5F5F5F5F5F5F5F5F5F5F5F5F5F5F5F5F5F5F5F5F5F5E2E2E2F5F5F5F5F5F5F5F5F5F5F5F5F5F5F5
310
F5F5F5F5F5F5F5F5F5F5F5F5F5F5F5F5F5F5F5F5F5F5F5F5F5F5F5F5F5F5F5F5F5F5F5F5F5F5F5F5F5F5F5F5F5F5F5F5F5F5F5F5F5F5F5F5F5F5F5F5F5F5F5F5F5F5F5F5F5F5F5F5F5F5F5F5F5F5F5F5F5F5F5F5F5F5F5F5F5F5F5F5F5F5F5F5F5F5F5F5F5F5F5F5F5F5F5F5F5F5F5F5F5F5F5F5F5F5F5F5F5F5F5F5F5F5F5
310
F5F5F5F5F5F5F5F5F5F5F5F5F5F5F5F5F5F5F5F5F5F5F5F5F5F5F5F5F5F5F5F5F5F5F5E2E2E2F5F5F5F5F5F5F5F5F5F5F5F5F5F5F5F5F5F5F5F5F5F5F5F5F5F5F5F5F5F5F5F5F5F5F5F5F5F5F5F5F5F5F5F5F5F5F5F5F5F5F5F5F5F5F5F5F5F5F5F5F5F5F5F5F5F5F5F5F5F5F5F5F5F5F5F5F5F5F5F5F5F5F5F5F5F5F5F5F5
310
F5F5F5F5F5F5F5F5F5F5F5F5F5F5F5F5F5F5F5F5F5F5F5F5F5F5F5F5F5F5F5F5F5F5F5F5F5F5F5F5F5F5F5F5F5F5F5F5F5F5F5F5F5F5F5F5F5F5F5F5F5F5F5F5F5F5F5F5F5F5F5F5F5F5F5F5F5F5F5F5F5F5F5F5F5F5F5F5E2E2E2F5F5F5F5F5F5F5F5F5F5F5F5F5F5F5F5F5F5F5F5F5F5F5F5F5F5F5F5F5F5F5F5F5F5F5F5
310
F5F5F5F5F5F5F5F5F5F5F5F5F5F5F5F5F5F5F5F5F5F5F5F5F5F5F5F5F5F5F5F5F5F5F5F5F5F5F5F5F5F5F5F5F5F5F5F5F5F5F5F5F5F5F5F5F5F5F5F5F5F5F5F5F5F5F5F5F5F5F5F5F5F5F5F5F5F5F5F5F5F5F5F5F5F5F5F5F5F5F5F5F5F5F5F5F5F5F5F5F5F5F5F5F5F5F5F5F5F5F5F5F5F5F5F5F5F5F5F5F5F5F5F5F5F5F5
310
F5F5F5F5F5F5F5F5F5F5F5F5F5F5E2E2E2F5F5F5F5F5F5F5F5F5F5F5F5F5F5F5F5F5F5F5F5F5F5F5F5F5F5F5F5F5F5F5F5F5F5F5F5F5F5F5F5F5F5F5F5F5F5F5F5F5F5F5F5F5F5F5F5F5F5F5F5F5F5F5F5F5F5F5F5F5F5F5F5F5F5F5F5F5F5F5F5F5F5F5F5F5F5F5F5F5F5F5F5F5F5F5F5F5F5F5F5F5F5F5F5F5F5F5F5F5F5
310
F5F5F5F5F5F5F5F5F5F5F5F5F5F5F5F5F5F5F5F5F5F5F5F5F5F5F5F5F5F5F5F5F5F5F5F5F5F5F5F5F5F5F5F5F5F5F5F5F5F5F5F5F5F5F5F5F5F5F5F5F5F5F5F5F5F5F5E2E2E2F5F5F5F5F5F5F5F5F5F5F5F5F5F5F5F5F5F5F5F5F5F5F5F5F5F5F5F5F5F5F5F5F5F5F5F5F5F5F5F5F5F5F5F5F5F5F5F5F5F5F5F5F5F5F5F5F5
310
F5F5F5F5F5F5F5F5F5F5F5F5F5F5F5F5F5F5F5F5F5F5F5F5F5F5F5F5F5F5F5F5F5F5F5F5F5F5F5F5F5F5F5F5F5F5F5F5F5F5F5F5F5F5F5F5F5F5F5F5F5F5F5F5F5F5F5F5F5F5F5F5F5F5F5F5F5F5F5F5F5F5F5F5F5F5F5F5F5F5F5F5F5F5F5F5F5F5F5F5F5F5F5F5F5F5F5F5F5F5F5F5F5F5F5F5F5F5F5F5E2E2E2F5F5F5E2
310
F5F5F5F5F5F5F5F5F5F5F5F5F5F5F5F5F5F5F5F5F5F5F5F5F5F5F5F5F5F5F5F5F5F5F5F5F5F5F5F5F5F5F5F5F5F5F5F5F5F5F5F5F5F5F5F5F5F5F5F5F5F5F5F5F5F5F5F5F5F5F5F5F5F5F5F5F5F5F5F5F5F5F5F5F5F5F5F5F5F5F5F5F5F5F5F5F5F5F5F5F5F5F5F5F5F5F5F5F5F5F5F5F5F5F5F5F5F5F5F5F5F5F5F5F5F5F5
310
F5F5F5F5F5F5F5F5F5F5F5F5F5F5F5F5F5F5F5F5F5F5F5F5F5F5F5F5F5F5F5F5F5F5F5F5F5F5F5F5F5F5E2F5F5F5E2E2E2F5F5F5E2F5F5F5F5F5F5F5F5F5F5F5F5F5F5F5F5F5F5F5F5F5F5F5F5F5F5F5F5F5F5F5F5F5F5F5F5F5F5F5F5F5F5F5F5F5F5F5F5F5F5F5F5F5F5F5F5F5F5F5F5F5F5F5F5F5F5F5F5F5F5F5F5F5F5
310
F5F5F5F5F5F5F5F5F5F5F5F5F5F5F5F5F5F5F5F5F5F5F5F5F5F5F5F5F5F5F5F5F5F5F5F5F5F5F5F5F5F5F5F5F5F5F5F5F5F5F5F5F5F5F5F5F5F5F5F5F5F5F5F5F5F5F5F5F5F5F5F5F5F5F5F5F5F5F5F5F5F5F5F5F5F5F5F5F5F5F5F5F5F5F5E2F5F5F5E2E2E2F5F5F5E2F5F5F5F5F5F5F5F5F5F5F5F5F5F5F5F5F5F5F5F5F5
310
F5F5F5F5F5F5F5F5F5F5F5F5F5F5F5F5F5F5F5F5F5F5F5F5F5F5F5F5F5F5F5F5F5F5F5F5F5F5F5F5F5F5F5F5F5F5F5F5F5F5F5F5F5F5F5F5F5F5F5F5F5F5F5F5F5F5F5F5F5F5F5F5F5F5F5F5F5F5F5F5F5F5F5F5F5F5F5F5F5F5F5F5F5F5F5F5F5F5F5F5F5F5F5F5F5F5F5F5F5F5F5F5F5F5F5F5F5F5F5F5F5F5F5F5F5F5F5
310
F5F5F5F5F5F5F5F5F5F5F5F5F5F5F5F5F5F5F5F5F5E2F5F5F5E2E2E2F5F5F5E2F5F5F5F5F5F5F5F5F5F5F5F5F5F5F5F5F5F5F5F5F5F5F5F5F5F5F5F5F5F5F5F5F5F5F5F5F5F5F5F5F5F5F5F5F5F5F5F5F5F5F5F5F5F5F5F5F5F5F5F5F5F5F5F5F5F5F5F5F5F5F5F5F5F5F5F5F5F5F5F5F5F5F5F5F5F5F5F5F5F5F5F5F5F5F5
310
F5F5F5F5F5F5F5F5F5F5F5F5F5F5F5F5F5F5F5F5F5F5F5F5F5F5F5F5F5F5F5F5F5F5F5F5F5F5F5F5F5F5F5F5F5F5F5F5F5F5F5F5F5F5F5F5F5F5F5F5F5F5F5F5F5F5F5F5F5F5F5F5F5F5E2F5F5F5E2E2E2F5F5F5E2F5F5F5F5F5F5F5F5F5F5F5F5F5F5F5F5F5F5F5F5F5F5F5F5F5F5F5F5F5F5F5F5F5F5F5F5F5F5F5F5F5F5
310
F5F5F5F5F5F5F5F5F5F5F5F5F5F5F5F5F5F5F5F5F5F5F5F5F5F5F5F5F5F5F5F5F5F5F5F5F5F5F5F5F5F5F5F5F5F5F5F5F5F5F5F5F5F5F5F5F5F5F5F5F5F5F5F5F5F5F5F5F5F5F5F5F5F5F5F5F5F5F5F5F5F5F5F5F5F5F5F5F5F5F5F5F5F5F5F5F5F5F5F5F5F5F5F5F5F5F5F5F5F5F5F5F5F5F5F5F5F5F5F5F5F5F5F5F5F5F5
310
E2F5F5F5E2E2E2F5F5F5E2F5F5F5F5F5F5F5F5F5F5F5F5F5F5F5F5F5F5F5F5F5F5F5F5F5F5F5F5F5F5F5F5F5F5F5F5F5F5F5F5F5F5F5F5F5F5F5F5F5F5F5F5F5F5F5F5F5F5F5F5F5F5F5F5F5F5F5F5F5F5F5F5F5F5F5F5F5F5F5F5F5F5F5F5F5F5F5F5F5F5F5F5F5F5F5F5F5F5F5F5F5F5F5F5F5F5F5F5F5F5F5F5F5F5F5F5
310
F5F5F5F5F5F5F5F5F5F5F5F5F5F5F5F5F5F5F5F5F5F5F5F5F5F5F5F5F5F5F5F5F5F5F5F5F5F5F5F5F5F5F5F5F5F5F5F5F5F5F5F5F5E2F5F5F5E2E2E2F5F5F5E2F5F5F5F5F5F5F5F5F5F5F5F5F5F5F5F5F5F5F5F5F5F5F5F5F5F5F5F5F5F5F5F5F5F5F5F5F5F5F5F5F5F5F5F5F5F5F5F5F5F5F5F5F5F5F5F5F5F5F5F5F5F5F5
310
F5F5F5F5F5F5F5F5F5F5F5F5F5F5F5F5F5F5F5F5F5F5F5F5F5F5F5F5F5F5F5F5F5F5F5F5F5F5F5F5F5F5F5F5F5F5F5F5F5F5F5F5F5F5F5F5F5F5F5F5F5F5F5F5F5F5F5F5F5F5F5F5F5F5F5F5F5F5F5F5F5F5F5F5F5F5F5F5F5F5F5F5F5F5F5F5F5F5F5F5F5F5F5F5F5F5E2F5F5F5E2E2E2F5F5F5E2F5F5F5F5F5F5F5F5F5F5
310
F5F5F5F5F5F5F5F5F5F5F5F5F5F5F5F5F5F5F5F5F5F5F5F5F5F5F5F5F5F5F5F5F5F5F5F5F5F5F5F5F5F5F5F5F5F5F5F5F5F5F5F5F5F5F5F5F5F5F5F5F5F5F5F5F5F5F5F5F5F5F5F5F5F5F5F5F5F5F5F5F5F5F5F5F5F5F5F5F5F5F5F5F5F5F5F5F5F5F5F5F5F5F5F5F5F5F5F5F5F5F5F5F5F5F5F5F5F5F5F5F5F5F5F5F5F5F5
310
F5F5F5F5F5F5F5F5F5F5F5F5F5F5F5F5F5F5F5F5F5F5F5F5F5F5F5F5F5F5F5F5E2F5F5F5E2E2E2F5F5F5E2E2E2E2E2E2E2E2F5F5F5F5F5F5F5F5F5E2E2E2E2E2E2E2E2E2E2E2E2E2E2E2E2F5F5F5F5F5F5F5F5E2E2E2E2E2E2E2E2E2E2E2E2E2E2E2E2F5F5F5F5F5F5F5F5F5E2E2E2E2E2E2E2E2E2E2E2E2E2E2E2F5F5F5F5
310
F5F5F5F5F5E2E2E2E2E2E2E2E2E2E2E2E2E2E2E2F5F5F5F5F5F5F5F5F5E2E2E2E2E2E2E2E2E2E2E2E2E2E2E2E2F5F5F5F5F5F5F5F5E2E2E2E2E2E2E2E2E2E2E2E2E2E2E2E2F5F5F5F5F5F5F5F5F5E2E2E2E2E2E2E2E2F5F5F5E2E2E2F5F5F5F5F5F5F5F5F5F5F5F5F5F5F5F5F5F5F5F5F5F5F5F5F5F5F5F5F5F5F5F5F5F5F5
310
F5F5F5F5F5F5F5F5F5F5F5F5F5F5F5F5F5F5F5F5F5F5F5F5F5F5F5F5F5F5F5F5F5F5F5F5F5F5F5F5F5F5F5F5F5F5F5F5F5F5F5F5F5F5F5F5F5F5F5F5F5F5F5F5F5F5F5F5F5F5F5F5F5F5F5F5F5F5F5F5F5F5F5F5F5F5F5F5F5F5F5F5F5F5F5F5F5F5F5F5F5F5F5F5F5F5F5F5F5F5F5F5F5F5F5F5F5F5F5F5F5F5F5F5F5F5F5
310
F5F5F5F5F5F5F5F5F5F5F5F5F5F5F5E2E2E2F5F5F5F5F5F5F5F5F5F5F5F5F5F5F5F5F5F5F5F5F5F5F5F5F5F5F5F5F5F5F5F5F5F5F5F5F5F5F5F5F5F5F5F5F5F5F5F5F5F5F5F5F5F5F5F5F5F5F5F5F5F5F5F5F5F5F5F5F5F5F5F5F5F5F5F5F5F5F5F5F5F5F5F5F5F5F5F5F5F5F5F5F5F5F5F5F5F5F5F5F5F5F5F5F5F5F5F5F5
310
F5F5F5F5F5F5F5F5F5F5F5F5F5F5F5F5F5F5F5F5F5F5F5F5F5F5F5F5F5F5F5F5F5F5F5F5F5F5F5F5F5F5F5F5F5F5F5F5F5F5F5F5F5F5F5F5F5F5F5F5F5F5F5F5F5F5F5F5E2E2E2F5F5F5F5F5F5F5F5F5F5F5F5F5F5F5F5F5F5F5F5F5F5F5F5F5F5F5F5F5F5F5F5F5F5F5F5F5F5F5F5F5F5F5F5F5F5F5F5F5F5F5F5F5F5F5F5
310
F5F5F5F5F5F5F5F5F5F5F5F5F5F5F5F5F5F5F5F5F5F5F5F5F5F5F5F5F5F5F5F5F5F5F5F5F5F5F5F5F5F5F5F5F5F5F5F5F5F5F5F5F5F5F5F5F5F5F5F5F5F5F5F5F5F5F5F5F5F5F5F5F5F5F5F5F5F5F5F5F5F5F5F5F5F5F5F5F5F5F5F5F5F5F5F5F5F5F5F5F5F5F5F5F5F5F5F5F5F5F5F5F5F5F5F5F5F5F5F5F5E2EFE2F5F5F5
310
F5F5F5F5F5F5F5F5F5F5F5F5F5F5F5F5F5F5F5F5F5F5F5F5F5F5F5F5F5F5F5F5F5F5F5F5F5F5F5F5F5F5F5F5F5F5F5F5F5F5F5F5F5F5F5F5F5F5F5F5F5F5F5F5F5F5F5F5F5F5F5F5F5F5F5F5F5F5F5F5F5F5F5F5F5F5F5F5F5F5F5F5F5F5F5F5F5F5F5F5F5F5F5F5F5F5F5F5F5F5F5F5F5F5F5F5F5F5F5F5F5F5F5F5F5F5F5
310
F5F5F5F5F5F5F5F5F5F5F5F5F5F5F5F5F5F5F5F5F5F5F5F5F5F5F5F5F5F5F5F5F5F5F5F5F5F5F5F5F5F5F5F5F5F5F5E2EF
  0
XRECORD
  5
4667
102
{ACAD_REACTORS
330
4666
102
}
330
4666
100
AcDbXrecord
280
     1
102
SHADEPLOT
 70
     0
102
SHADEPLOTRESLEVEL
 70
     2
102
SHADEPLOTCUSTOMDPI
 70
   300
  0
XRECORD
  5
4557
102
{ACAD_REACTORS
330
4556
102
}
330
4556
100
AcDbXrecord
280
     1
102
MATERIAL
148
0.0
149
0.0
149
0.0
 93
        0
 94
      127
282
     0
 72
     1
 77
     1
171
     1
175
     1
179
     1
273
     0
  0
XRECORD
  5
4555
102
{ACAD_REACTORS
330
4554
102
}
330
4554
100
AcDbXrecord
280
     1
102
MATERIAL
148
0.0
149
0.0
149
0.0
 93
        0
 94
      127
282
     0
 72
     1
 77
     1
171
     1
175
     1
179
     1
273
     0
  0
XRECORD
  5
4559
102
{ACAD_REACTORS
330
4558
102
}
330
4558
100
AcDbXrecord
280
     1
102
MATERIAL
148
0.0
149
0.0
149
0.0
 93
        0
 94
      127
282
     0
 72
     1
 77
     1
171
     1
175
     1
179
     1
273
     0
  0
XRECORD
  5
468C
102
{ACAD_REACTORS
330
468B
102
}
330
468B
100
AcDbXrecord
280
     1
102
SHADEPLOT
 70
     0
102
SHADEPLOTRESLEVEL
 70
     2
102
SHADEPLOTCUSTOMDPI
 70
   300
  0
XRECORD
  5
468E
102
{ACAD_REACTORS
330
468D
102
}
330
468D
100
AcDbXrecord
280
     1
102
SHADEPLOT
 70
     0
102
SHADEPLOTRESLEVEL
 70
     2
102
SHADEPLOTCUSTOMDPI
 70
   300
  0
XRECORD
  5
4690
102
{ACAD_REACTORS
330
468F
102
}
330
468F
100
AcDbXrecord
280
     1
102
SHADEPLOT
 70
     0
102
SHADEPLOTRESLEVEL
 70
     2
102
SHADEPLOTCUSTOMDPI
 70
   300
  0
XRECORD
  5
4692
102
{ACAD_REACTORS
330
4691
102
}
330
4691
100
AcDbXrecord
280
     1
102
SHADEPLOT
 70
     0
102
SHADEPLOTRESLEVEL
 70
     2
102
SHADEPLOTCUSTOMDPI
 70
   300
  0
XRECORD
  5
4694
102
{ACAD_REACTORS
330
4693
102
}
330
4693
100
AcDbXrecord
280
     1
102
SHADEPLOT
 70
     0
102
SHADEPLOTRESLEVEL
 70
     2
102
SHADEPLOTCUSTOMDPI
 70
   300
  0
CELLSTYLEMAP
  5
465A
102
{ACAD_REACTORS
330
4659
102
}
330
4659
100
AcDbCellStyleMap
 90
        3
300
CELLSTYLE
  1
TABLEFORMAT_BEGIN
 90
        5
170
     1
 91
        0
 92
    32768
 62
   257
 93
        1
300
CONTENTFORMAT
  1
CONTENTFORMAT_BEGIN
 90
        0
 91
        0
 92
        4
 93
        0
300

 40
0.0
140
1.0
 94
        5
 62
     0
340
11
144
6.0
309
CONTENTFORMAT_END
171
     1
301
MARGIN
  1
CELLMARGIN_BEGIN
 40
1.5
 40
1.5
 40
1.5
 40
1.5
 40
0.18
 40
0.18
309
CELLMARGIN_END
 94
        6
 95
        1
302
GRIDFORMAT
  1
GRIDFORMAT_BEGIN
 90
        0
 91
        1
 62
     0
 92
       -2
340
0
 93
        0
 40
0.045
309
GRIDFORMAT_END
 95
        2
302
GRIDFORMAT
  1
GRIDFORMAT_BEGIN
 90
        0
 91
        1
 62
     0
 92
       -2
340
0
 93
        0
 40
0.045
309
GRIDFORMAT_END
 95
        4
302
GRIDFORMAT
  1
GRIDFORMAT_BEGIN
 90
        0
 91
        1
 62
     0
 92
       -2
340
0
 93
        0
 40
0.045
309
GRIDFORMAT_END
 95
        8
302
GRIDFORMAT
  1
GRIDFORMAT_BEGIN
 90
        0
 91
        1
 62
     0
 92
       -2
340
0
 93
        0
 40
0.045
309
GRIDFORMAT_END
 95
       16
302
GRIDFORMAT
  1
GRIDFORMAT_BEGIN
 90
        0
 91
        1
 62
     0
 92
       -2
340
0
 93
        0
 40
0.045
309
GRIDFORMAT_END
 95
       32
302
GRIDFORMAT
  1
GRIDFORMAT_BEGIN
 90
        0
 91
        1
 62
     0
 92
       -2
340
0
 93
        0
 40
0.045
309
GRIDFORMAT_END
309
TABLEFORMAT_END
  1
CELLSTYLE_BEGIN
 90
        1
 91
        1
300
_TITLE
309
CELLSTYLE_END
300
CELLSTYLE
  1
TABLEFORMAT_BEGIN
 90
        5
170
     1
 91
        0
 92
        0
 62
   257
 93
        1
300
CONTENTFORMAT
  1
CONTENTFORMAT_BEGIN
 90
        0
 91
        0
 92
        4
 93
        0
300

 40
0.0
140
1.0
 94
        5
 62
     0
340
11
144
4.5
309
CONTENTFORMAT_END
171
     1
301
MARGIN
  1
CELLMARGIN_BEGIN
 40
1.5
 40
1.5
 40
1.5
 40
1.5
 40
0.18
 40
0.18
309
CELLMARGIN_END
 94
        6
 95
        1
302
GRIDFORMAT
  1
GRIDFORMAT_BEGIN
 90
        0
 91
        1
 62
     0
 92
       -2
340
0
 93
        0
 40
0.045
309
GRIDFORMAT_END
 95
        2
302
GRIDFORMAT
  1
GRIDFORMAT_BEGIN
 90
        0
 91
        1
 62
     0
 92
       -2
340
0
 93
        0
 40
0.045
309
GRIDFORMAT_END
 95
        4
302
GRIDFORMAT
  1
GRIDFORMAT_BEGIN
 90
        0
 91
        1
 62
     0
 92
       -2
340
0
 93
        0
 40
0.045
309
GRIDFORMAT_END
 95
        8
302
GRIDFORMAT
  1
GRIDFORMAT_BEGIN
 90
        0
 91
        1
 62
     0
 92
       -2
340
0
 93
        0
 40
0.045
309
GRIDFORMAT_END
 95
       16
302
GRIDFORMAT
  1
GRIDFORMAT_BEGIN
 90
        0
 91
        1
 62
     0
 92
       -2
340
0
 93
        0
 40
0.045
309
GRIDFORMAT_END
 95
       32
302
GRIDFORMAT
  1
GRIDFORMAT_BEGIN
 90
        0
 91
        1
 62
     0
 92
       -2
340
0
 93
        0
 40
0.045
309
GRIDFORMAT_END
309
TABLEFORMAT_END
  1
CELLSTYLE_BEGIN
 90
        2
 91
        1
300
_HEADER
309
CELLSTYLE_END
300
CELLSTYLE
  1
TABLEFORMAT_BEGIN
 90
        5
170
     1
 91
        0
 92
        0
 62
   257
 93
        1
300
CONTENTFORMAT
  1
CONTENTFORMAT_BEGIN
 90
        0
 91
        0
 92
        4
 93
        0
300

 40
0.0
140
1.0
 94
        2
 62
     0
340
11
144
4.5
309
CONTENTFORMAT_END
171
     1
301
MARGIN
  1
CELLMARGIN_BEGIN
 40
1.5
 40
1.5
 40
1.5
 40
1.5
 40
0.18
 40
0.18
309
CELLMARGIN_END
 94
        6
 95
        1
302
GRIDFORMAT
  1
GRIDFORMAT_BEGIN
 90
        0
 91
        1
 62
     0
 92
       -2
340
0
 93
        0
 40
0.045
309
GRIDFORMAT_END
 95
        2
302
GRIDFORMAT
  1
GRIDFORMAT_BEGIN
 90
        0
 91
        1
 62
     0
 92
       -2
340
0
 93
        0
 40
0.045
309
GRIDFORMAT_END
 95
        4
302
GRIDFORMAT
  1
GRIDFORMAT_BEGIN
 90
        0
 91
        1
 62
     0
 92
       -2
340
0
 93
        0
 40
0.045
309
GRIDFORMAT_END
 95
        8
302
GRIDFORMAT
  1
GRIDFORMAT_BEGIN
 90
        0
 91
        1
 62
     0
 92
       -2
340
0
 93
        0
 40
0.045
309
GRIDFORMAT_END
 95
       16
302
GRIDFORMAT
  1
GRIDFORMAT_BEGIN
 90
        0
 91
        1
 62
     0
 92
       -2
340
0
 93
        0
 40
0.045
309
GRIDFORMAT_END
 95
       32
302
GRIDFORMAT
  1
GRIDFORMAT_BEGIN
 90
        0
 91
        1
 62
     0
 92
       -2
340
0
 93
        0
 40
0.045
309
GRIDFORMAT_END
309
TABLEFORMAT_END
  1
CELLSTYLE_BEGIN
 90
        3
 91
        2
300
_DATA
309
CELLSTYLE_END
  0
XRECORD
  5
4668
102
{ACAD_REACTORS
330
4659
102
}
330
4659
100
AcDbXrecord
280
     1
102
ACAD_ROUNDTRIP_PRE2007_TABLESTYLE
 90
        4
 91
        0
  1

 92
        4
 93
        0
  2

 94
        4
 95
        0
  3

  0
XRECORD
  5
4676
102
{ACAD_REACTORS
330
4675
102
}
330
4675
100
AcDbXrecord
280
     1
102
RTVSPropertyOp0
 70
     1
102
RTVSPropertyOp1
 70
     1
102
RTVSPropertyOp2
 70
     1
102
RTVSPropertyOp3
 70
     1
102
RTVSPropertyOp4
 70
     1
102
RTVSPropertyOp5
 70
     1
102
RTVSPropertyOp6
 70
     1
102
RTVSPropertyOp7
 70
     1
102
RTVSPropertyOp8
 70
     1
102
RTVSPropertyOp9
 70
     1
102
RTVSPropertyOp10
 70
     1
102
RTVSPropertyOp11
 70
     1
102
RTVSPropertyOp12
 70
     1
102
RTVSPropertyOp13
 70
     1
102
RTVSPropertyOp14
 70
     1
102
RTVSPropertyOp15
 70
     1
102
RTVSPropertyOp16
 70
     1
102
RTVSPropertyOp17
 70
     1
102
RTVSPropertyOp18
 70
     1
102
RTVSPropertyOp19
 70
     1
102
RTVSPropertyOp20
 70
     1
102
RTVSPropertyOp21
 70
     1
102
RTVSPropertyOp22
 70
     1
102
RTVSPropertyOp23
 70
     1
102
RTVSPropertyOp24
 70
     1
102
RTVSPropertyOp25
 70
     1
102
RTVSPropertyOp26
 70
     1
102
RTVSPropertyOp27
 70
     1
  0
XRECORD
  5
467A
102
{ACAD_REACTORS
330
4679
102
}
330
4679
100
AcDbXrecord
280
     1
102
RTVSPropertyOp0
 70
     1
102
RTVSPropertyOp1
 70
     1
102
RTVSPropertyOp2
 70
     1
102
RTVSPropertyOp3
 70
     1
102
RTVSPropertyOp4
 70
     1
102
RTVSPropertyOp5
 70
     1
102
RTVSPropertyOp6
 70
     1
102
RTVSPropertyOp7
 70
     1
102
RTVSPropertyOp8
 70
     1
102
RTVSPropertyOp9
 70
     1
102
RTVSPropertyOp10
 70
     1
102
RTVSPropertyOp11
 70
     1
102
RTVSPropertyOp12
 70
     1
102
RTVSPropertyOp13
 70
     1
102
RTVSPropertyOp14
 70
     1
102
RTVSPropertyOp15
 70
     1
102
RTVSPropertyOp16
 70
     1
102
RTVSPropertyOp17
 70
     1
102
RTVSPropertyOp18
 70
     1
102
RTVSPropertyOp19
 70
     1
102
RTVSPropertyOp20
 70
     1
102
RTVSPropertyOp21
 70
     1
102
RTVSPropertyOp22
 70
     1
102
RTVSPropertyOp23
 70
     1
102
RTVSPropertyOp24
 70
     1
102
RTVSPropertyOp25
 70
     1
102
RTVSPropertyOp26
 70
     1
102
RTVSPropertyOp27
 70
     1
  0
XRECORD
  5
4678
102
{ACAD_REACTORS
330
4677
102
}
330
4677
100
AcDbXrecord
280
     1
102
RTVSPropertyOp0
 70
     1
102
RTVSPropertyOp1
 70
     1
102
RTVSPropertyOp2
 70
     1
102
RTVSPropertyOp3
 70
     1
102
RTVSPropertyOp4
 70
     1
102
RTVSPropertyOp5
 70
     1
102
RTVSPropertyOp6
 70
     1
102
RTVSPropertyOp7
 70
     1
102
RTVSPropertyOp8
 70
     1
102
RTVSPropertyOp9
 70
     1
102
RTVSPropertyOp10
 70
     1
102
RTVSPropertyOp11
 70
     1
102
RTVSPropertyOp12
 70
     1
102
RTVSPropertyOp13
 70
     1
102
RTVSPropertyOp14
 70
     1
102
RTVSPropertyOp15
 70
     1
102
RTVSPropertyOp16
 70
     1
102
RTVSPropertyOp17
 70
     1
102
RTVSPropertyOp18
 70
     1
102
RTVSPropertyOp19
 70
     1
102
RTVSPropertyOp20
 70
     1
102
RTVSPropertyOp21
 70
     1
102
RTVSPropertyOp22
 70
     1
102
RTVSPropertyOp23
 70
     1
102
RTVSPropertyOp24
 70
     1
102
RTVSPropertyOp25
 70
     1
102
RTVSPropertyOp26
 70
     1
102
RTVSPropertyOp27
 70
     1
  0
XRECORD
  5
4674
102
{ACAD_REACTORS
330
4673
102
}
330
4673
100
AcDbXrecord
280
     1
102
RTVSPropertyOp0
 70
     1
102
RTVSPropertyOp1
 70
     1
102
RTVSPropertyOp2
 70
     1
102
RTVSPropertyOp3
 70
     1
102
RTVSPropertyOp4
 70
     1
102
RTVSPropertyOp5
 70
     1
102
RTVSPropertyOp6
 70
     1
102
RTVSPropertyOp7
 70
     1
102
RTVSPropertyOp8
 70
     1
102
RTVSPropertyOp9
 70
     1
102
RTVSPropertyOp10
 70
     1
102
RTVSPropertyOp11
 70
     1
102
RTVSPropertyOp12
 70
     1
102
RTVSPropertyOp13
 70
     1
102
RTVSPropertyOp14
 70
     1
102
RTVSPropertyOp15
 70
     1
102
RTVSPropertyOp16
 70
     1
102
RTVSPropertyOp17
 70
     1
102
RTVSPropertyOp18
 70
     1
102
RTVSPropertyOp19
 70
     1
102
RTVSPropertyOp20
 70
     1
102
RTVSPropertyOp21
 70
     1
102
RTVSPropertyOp22
 70
     1
102
RTVSPropertyOp23
 70
     1
102
RTVSPropertyOp24
 70
     1
102
RTVSPropertyOp25
 70
     1
102
RTVSPropertyOp26
 70
     1
102
RTVSPropertyOp27
 70
     1
  0
XRECORD
  5
4682
102
{ACAD_REACTORS
330
4681
102
}
330
4681
100
AcDbXrecord
280
     1
102
RTVSPropertyOp0
 70
     1
102
RTVSPropertyOp1
 70
     1
102
RTVSPropertyOp2
 70
     1
102
RTVSPropertyOp3
 70
     1
102
RTVSPropertyOp4
 70
     1
102
RTVSPropertyOp5
 70
     1
102
RTVSPropertyOp6
 70
     1
102
RTVSPropertyOp7
 70
     1
102
RTVSPropertyOp8
 70
     1
102
RTVSPropertyOp9
 70
     1
102
RTVSPropertyOp10
 70
     1
102
RTVSPropertyOp11
 70
     1
102
RTVSPropertyOp12
 70
     1
102
RTVSPropertyOp13
 70
     1
102
RTVSPropertyOp14
 70
     1
102
RTVSPropertyOp15
 70
     1
102
RTVSPropertyOp16
 70
     1
102
RTVSPropertyOp17
 70
     1
102
RTVSPropertyOp18
 70
     1
102
RTVSPropertyOp19
 70
     1
102
RTVSPropertyOp20
 70
     1
102
RTVSPropertyOp21
 70
     1
102
RTVSPropertyOp22
 70
     1
102
RTVSPropertyOp23
 70
     1
102
RTVSPropertyOp24
 70
     1
102
RTVSPropertyOp25
 70
     1
102
RTVSPropertyOp26
 70
     1
102
RTVSPropertyOp27
 70
     1
  0
XRECORD
  5
468A
102
{ACAD_REACTORS
330
4689
102
}
330
4689
100
AcDbXrecord
280
     1
102
RTVSPropertyOp0
 70
     1
102
RTVSPropertyOp1
 70
     1
102
RTVSPropertyOp2
 70
     1
102
RTVSPropertyOp3
 70
     1
102
RTVSPropertyOp4
 70
     1
102
RTVSPropertyOp5
 70
     1
102
RTVSPropertyOp6
 70
     1
102
RTVSPropertyOp7
 70
     1
102
RTVSPropertyOp8
 70
     1
102
RTVSPropertyOp9
 70
     1
102
RTVSPropertyOp10
 70
     1
102
RTVSPropertyOp11
 70
     1
102
RTVSPropertyOp12
 70
     1
102
RTVSPropertyOp13
 70
     1
102
RTVSPropertyOp14
 70
     1
102
RTVSPropertyOp15
 70
     1
102
RTVSPropertyOp16
 70
     1
102
RTVSPropertyOp17
 70
     1
102
RTVSPropertyOp18
 70
     1
102
RTVSPropertyOp19
 70
     1
102
RTVSPropertyOp20
 70
     1
102
RTVSPropertyOp21
 70
     1
102
RTVSPropertyOp22
 70
     1
102
RTVSPropertyOp23
 70
     1
102
RTVSPropertyOp24
 70
     1
102
RTVSPropertyOp25
 70
     1
102
RTVSPropertyOp26
 70
     1
102
RTVSPropertyOp27
 70
     1
  0
XRECORD
  5
467C
102
{ACAD_REACTORS
330
467B
102
}
330
467B
100
AcDbXrecord
280
     1
102
RTVSPropertyOp0
 70
     1
102
RTVSPropertyOp1
 70
     1
102
RTVSPropertyOp2
 70
     1
102
RTVSPropertyOp3
 70
     1
102
RTVSPropertyOp4
 70
     1
102
RTVSPropertyOp5
 70
     1
102
RTVSPropertyOp6
 70
     1
102
RTVSPropertyOp7
 70
     1
102
RTVSPropertyOp8
 70
     1
102
RTVSPropertyOp9
 70
     1
102
RTVSPropertyOp10
 70
     1
102
RTVSPropertyOp11
 70
     1
102
RTVSPropertyOp12
 70
     1
102
RTVSPropertyOp13
 70
     1
102
RTVSPropertyOp14
 70
     1
102
RTVSPropertyOp15
 70
     1
102
RTVSPropertyOp16
 70
     1
102
RTVSPropertyOp17
 70
     1
102
RTVSPropertyOp18
 70
     1
102
RTVSPropertyOp19
 70
     1
102
RTVSPropertyOp20
 70
     1
102
RTVSPropertyOp21
 70
     1
102
RTVSPropertyOp22
 70
     1
102
RTVSPropertyOp23
 70
     1
102
RTVSPropertyOp24
 70
     1
102
RTVSPropertyOp25
 70
     1
102
RTVSPropertyOp26
 70
     1
102
RTVSPropertyOp27
 70
     1
  0
XRECORD
  5
4680
102
{ACAD_REACTORS
330
467F
102
}
330
467F
100
AcDbXrecord
280
     1
102
RTVSPropertyOp0
 70
     1
102
RTVSPropertyOp1
 70
     1
102
RTVSPropertyOp2
 70
     1
102
RTVSPropertyOp3
 70
     1
102
RTVSPropertyOp4
 70
     1
102
RTVSPropertyOp5
 70
     1
102
RTVSPropertyOp6
 70
     1
102
RTVSPropertyOp7
 70
     1
102
RTVSPropertyOp8
 70
     1
102
RTVSPropertyOp9
 70
     1
102
RTVSPropertyOp10
 70
     1
102
RTVSPropertyOp11
 70
     1
102
RTVSPropertyOp12
 70
     1
102
RTVSPropertyOp13
 70
     1
102
RTVSPropertyOp14
 70
     1
102
RTVSPropertyOp15
 70
     1
102
RTVSPropertyOp16
 70
     1
102
RTVSPropertyOp17
 70
     1
102
RTVSPropertyOp18
 70
     1
102
RTVSPropertyOp19
 70
     1
102
RTVSPropertyOp20
 70
     1
102
RTVSPropertyOp21
 70
     1
102
RTVSPropertyOp22
 70
     1
102
RTVSPropertyOp23
 70
     1
102
RTVSPropertyOp24
 70
     1
102
RTVSPropertyOp25
 70
     1
102
RTVSPropertyOp26
 70
     1
102
RTVSPropertyOp27
 70
     1
  0
XRECORD
  5
469A
102
{ACAD_REACTORS
330
4699
102
}
330
4699
100
AcDbXrecord
280
     1
102
RTVSPropertyOp0
 70
     0
102
RTVSPropertyOp1
 70
     0
102
RTVSPropertyOp2
 70
     0
102
RTVSPropertyOp3
 70
     0
102
RTVSPropertyOp4
 70
     0
102
RTVSPropertyOp5
 70
     0
102
RTVSPropertyOp6
 70
     0
102
RTVSPropertyOp7
 70
     0
102
RTVSPropertyOp8
 70
     0
102
RTVSPropertyOp9
 70
     0
102
RTVSPropertyOp10
 70
     0
102
RTVSPropertyOp11
 70
     0
102
RTVSPropertyOp12
 70
     0
102
RTVSPropertyOp13
 70
     0
102
RTVSPropertyOp14
 70
     2
102
RTVSPropertyOp15
 70
     0
102
RTVSPropertyOp16
 70
     0
102
RTVSPropertyOp17
 70
     0
102
RTVSPropertyOp18
 70
     0
102
RTVSPropertyOp19
 70
     0
102
RTVSPropertyOp20
 70
     0
102
RTVSPropertyOp21
 70
     0
102
RTVSPropertyOp22
 70
     0
102
RTVSPropertyOp23
 70
     0
102
RTVSPropertyOp24
 70
     0
102
RTVSPropertyOp25
 70
     0
102
RTVSPropertyOp26
 70
     0
102
RTVSPropertyOp27
 70
     0
  0
XRECORD
  5
4688
102
{ACAD_REACTORS
330
4687
102
}
330
4687
100
AcDbXrecord
280
     1
102
RTVSPropertyOp0
 70
     1
102
RTVSPropertyOp1
 70
     1
102
RTVSPropertyOp2
 70
     1
102
RTVSPropertyOp3
 70
     1
102
RTVSPropertyOp4
 70
     1
102
RTVSPropertyOp5
 70
     1
102
RTVSPropertyOp6
 70
     1
102
RTVSPropertyOp7
 70
     1
102
RTVSPropertyOp8
 70
     1
102
RTVSPropertyOp9
 70
     1
102
RTVSPropertyOp10
 70
     1
102
RTVSPropertyOp11
 70
     1
102
RTVSPropertyOp12
 70
     1
102
RTVSPropertyOp13
 70
     1
102
RTVSPropertyOp14
 70
     1
102
RTVSPropertyOp15
 70
     1
102
RTVSPropertyOp16
 70
     1
102
RTVSPropertyOp17
 70
     1
102
RTVSPropertyOp18
 70
     1
102
RTVSPropertyOp19
 70
     1
102
RTVSPropertyOp20
 70
     1
102
RTVSPropertyOp21
 70
     1
102
RTVSPropertyOp22
 70
     1
102
RTVSPropertyOp23
 70
     1
102
RTVSPropertyOp24
 70
     1
102
RTVSPropertyOp25
 70
     1
102
RTVSPropertyOp26
 70
     1
102
RTVSPropertyOp27
 70
     1
  0
XRECORD
  5
466C
102
{ACAD_REACTORS
330
466B
102
}
330
466B
100
AcDbXrecord
280
     1
102
RTVSPropertyOp0
 70
     1
102
RTVSPropertyOp1
 70
     1
102
RTVSPropertyOp2
 70
     1
102
RTVSPropertyOp3
 70
     1
102
RTVSPropertyOp4
 70
     1
102
RTVSPropertyOp5
 70
     1
102
RTVSPropertyOp6
 70
     1
102
RTVSPropertyOp7
 70
     1
102
RTVSPropertyOp8
 70
     1
102
RTVSPropertyOp9
 70
     1
102
RTVSPropertyOp10
 70
     1
102
RTVSPropertyOp11
 70
     1
102
RTVSPropertyOp12
 70
     1
102
RTVSPropertyOp13
 70
     1
102
RTVSPropertyOp14
 70
     1
102
RTVSPropertyOp15
 70
     1
102
RTVSPropertyOp16
 70
     1
102
RTVSPropertyOp17
 70
     1
102
RTVSPropertyOp18
 70
     1
102
RTVSPropertyOp19
 70
     1
102
RTVSPropertyOp20
 70
     1
102
RTVSPropertyOp21
 70
     1
102
RTVSPropertyOp22
 70
     1
102
RTVSPropertyOp23
 70
     1
102
RTVSPropertyOp24
 70
     1
102
RTVSPropertyOp25
 70
     1
102
RTVSPropertyOp26
 70
     1
102
RTVSPropertyOp27
 70
     1
  0
XRECORD
  5
466E
102
{ACAD_REACTORS
330
466D
102
}
330
466D
100
AcDbXrecord
280
     1
102
RTVSPropertyOp0
 70
     1
102
RTVSPropertyOp1
 70
     1
102
RTVSPropertyOp2
 70
     1
102
RTVSPropertyOp3
 70
     1
102
RTVSPropertyOp4
 70
     1
102
RTVSPropertyOp5
 70
     1
102
RTVSPropertyOp6
 70
     1
102
RTVSPropertyOp7
 70
     1
102
RTVSPropertyOp8
 70
     1
102
RTVSPropertyOp9
 70
     1
102
RTVSPropertyOp10
 70
     1
102
RTVSPropertyOp11
 70
     1
102
RTVSPropertyOp12
 70
     1
102
RTVSPropertyOp13
 70
     1
102
RTVSPropertyOp14
 70
     1
102
RTVSPropertyOp15
 70
     1
102
RTVSPropertyOp16
 70
     1
102
RTVSPropertyOp17
 70
     1
102
RTVSPropertyOp18
 70
     1
102
RTVSPropertyOp19
 70
     1
102
RTVSPropertyOp20
 70
     1
102
RTVSPropertyOp21
 70
     1
102
RTVSPropertyOp22
 70
     1
102
RTVSPropertyOp23
 70
     1
102
RTVSPropertyOp24
 70
     1
102
RTVSPropertyOp25
 70
     1
102
RTVSPropertyOp26
 70
     1
102
RTVSPropertyOp27
 70
     1
  0
XRECORD
  5
4670
102
{ACAD_REACTORS
330
466F
102
}
330
466F
100
AcDbXrecord
280
     1
102
RTVSPropertyOp0
 70
     1
102
RTVSPropertyOp1
 70
     1
102
RTVSPropertyOp2
 70
     1
102
RTVSPropertyOp3
 70
     1
102
RTVSPropertyOp4
 70
     1
102
RTVSPropertyOp5
 70
     1
102
RTVSPropertyOp6
 70
     1
102
RTVSPropertyOp7
 70
     1
102
RTVSPropertyOp8
 70
     1
102
RTVSPropertyOp9
 70
     1
102
RTVSPropertyOp10
 70
     1
102
RTVSPropertyOp11
 70
     1
102
RTVSPropertyOp12
 70
     1
102
RTVSPropertyOp13
 70
     1
102
RTVSPropertyOp14
 70
     1
102
RTVSPropertyOp15
 70
     1
102
RTVSPropertyOp16
 70
     1
102
RTVSPropertyOp17
 70
     1
102
RTVSPropertyOp18
 70
     1
102
RTVSPropertyOp19
 70
     1
102
RTVSPropertyOp20
 70
     1
102
RTVSPropertyOp21
 70
     1
102
RTVSPropertyOp22
 70
     1
102
RTVSPropertyOp23
 70
     1
102
RTVSPropertyOp24
 70
     1
102
RTVSPropertyOp25
 70
     1
102
RTVSPropertyOp26
 70
     1
102
RTVSPropertyOp27
 70
     1
  0
XRECORD
  5
4672
102
{ACAD_REACTORS
330
4671
102
}
330
4671
100
AcDbXrecord
280
     1
102
RTVSPropertyOp0
 70
     1
102
RTVSPropertyOp1
 70
     1
102
RTVSPropertyOp2
 70
     1
102
RTVSPropertyOp3
 70
     1
102
RTVSPropertyOp4
 70
     1
102
RTVSPropertyOp5
 70
     1
102
RTVSPropertyOp6
 70
     1
102
RTVSPropertyOp7
 70
     1
102
RTVSPropertyOp8
 70
     1
102
RTVSPropertyOp9
 70
     1
102
RTVSPropertyOp10
 70
     1
102
RTVSPropertyOp11
 70
     1
102
RTVSPropertyOp12
 70
     1
102
RTVSPropertyOp13
 70
     1
102
RTVSPropertyOp14
 70
     1
102
RTVSPropertyOp15
 70
     1
102
RTVSPropertyOp16
 70
     1
102
RTVSPropertyOp17
 70
     1
102
RTVSPropertyOp18
 70
     1
102
RTVSPropertyOp19
 70
     1
102
RTVSPropertyOp20
 70
     1
102
RTVSPropertyOp21
 70
     1
102
RTVSPropertyOp22
 70
     1
102
RTVSPropertyOp23
 70
     1
102
RTVSPropertyOp24
 70
     1
102
RTVSPropertyOp25
 70
     1
102
RTVSPropertyOp26
 70
     1
102
RTVSPropertyOp27
 70
     1
  0
XRECORD
  5
4696
102
{ACAD_REACTORS
330
4695
102
}
330
4695
100
AcDbXrecord
280
     1
102
RTVSPropertyOp0
 70
     0
102
RTVSPropertyOp1
 70
     0
102
RTVSPropertyOp2
 70
     0
102
RTVSPropertyOp3
 70
     0
102
RTVSPropertyOp4
 70
     0
102
RTVSPropertyOp5
 70
     0
102
RTVSPropertyOp6
 70
     0
102
RTVSPropertyOp7
 70
     0
102
RTVSPropertyOp8
 70
     0
102
RTVSPropertyOp9
 70
     0
102
RTVSPropertyOp10
 70
     0
102
RTVSPropertyOp11
 70
     0
102
RTVSPropertyOp12
 70
     0
102
RTVSPropertyOp13
 70
     0
102
RTVSPropertyOp14
 70
     2
102
RTVSPropertyOp15
 70
     0
102
RTVSPropertyOp16
 70
     0
102
RTVSPropertyOp17
 70
     0
102
RTVSPropertyOp18
 70
     0
102
RTVSPropertyOp19
 70
     0
102
RTVSPropertyOp20
 70
     0
102
RTVSPropertyOp21
 70
     0
102
RTVSPropertyOp22
 70
     0
102
RTVSPropertyOp23
 70
     0
102
RTVSPropertyOp24
 70
     0
102
RTVSPropertyOp25
 70
     0
102
RTVSPropertyOp26
 70
     0
102
RTVSPropertyOp27
 70
     0
  0
XRECORD
  5
4686
102
{ACAD_REACTORS
330
4685
102
}
330
4685
100
AcDbXrecord
280
     1
102
RTVSPropertyOp0
 70
     1
102
RTVSPropertyOp1
 70
     1
102
RTVSPropertyOp2
 70
     1
102
RTVSPropertyOp3
 70
     1
102
RTVSPropertyOp4
 70
     1
102
RTVSPropertyOp5
 70
     1
102
RTVSPropertyOp6
 70
     1
102
RTVSPropertyOp7
 70
     1
102
RTVSPropertyOp8
 70
     1
102
RTVSPropertyOp9
 70
     1
102
RTVSPropertyOp10
 70
     1
102
RTVSPropertyOp11
 70
     1
102
RTVSPropertyOp12
 70
     1
102
RTVSPropertyOp13
 70
     1
102
RTVSPropertyOp14
 70
     1
102
RTVSPropertyOp15
 70
     1
102
RTVSPropertyOp16
 70
     1
102
RTVSPropertyOp17
 70
     1
102
RTVSPropertyOp18
 70
     1
102
RTVSPropertyOp19
 70
     1
102
RTVSPropertyOp20
 70
     1
102
RTVSPropertyOp21
 70
     1
102
RTVSPropertyOp22
 70
     1
102
RTVSPropertyOp23
 70
     1
102
RTVSPropertyOp24
 70
     1
102
RTVSPropertyOp25
 70
     1
102
RTVSPropertyOp26
 70
     1
102
RTVSPropertyOp27
 70
     1
  0
XRECORD
  5
4698
102
{ACAD_REACTORS
330
4697
102
}
330
4697
100
AcDbXrecord
280
     1
102
RTVSPropertyOp0
 70
     0
102
RTVSPropertyOp1
 70
     0
102
RTVSPropertyOp2
 70
     0
102
RTVSPropertyOp3
 70
     0
102
RTVSPropertyOp4
 70
     0
102
RTVSPropertyOp5
 70
     0
102
RTVSPropertyOp6
 70
     0
102
RTVSPropertyOp7
 70
     0
102
RTVSPropertyOp8
 70
     0
102
RTVSPropertyOp9
 70
     0
102
RTVSPropertyOp10
 70
     0
102
RTVSPropertyOp11
 70
     0
102
RTVSPropertyOp12
 70
     0
102
RTVSPropertyOp13
 70
     0
102
RTVSPropertyOp14
 70
     2
102
RTVSPropertyOp15
 70
     0
102
RTVSPropertyOp16
 70
     0
102
RTVSPropertyOp17
 70
     0
102
RTVSPropertyOp18
 70
     0
102
RTVSPropertyOp19
 70
     0
102
RTVSPropertyOp20
 70
     0
102
RTVSPropertyOp21
 70
     0
102
RTVSPropertyOp22
 70
     0
102
RTVSPropertyOp23
 70
     0
102
RTVSPropertyOp24
 70
     0
102
RTVSPropertyOp25
 70
     0
102
RTVSPropertyOp26
 70
     0
102
RTVSPropertyOp27
 70
     0
  0
XRECORD
  5
467E
102
{ACAD_REACTORS
330
467D
102
}
330
467D
100
AcDbXrecord
280
     1
102
RTVSPropertyOp0
 70
     1
102
RTVSPropertyOp1
 70
     1
102
RTVSPropertyOp2
 70
     1
102
RTVSPropertyOp3
 70
     1
102
RTVSPropertyOp4
 70
     1
102
RTVSPropertyOp5
 70
     1
102
RTVSPropertyOp6
 70
     1
102
RTVSPropertyOp7
 70
     1
102
RTVSPropertyOp8
 70
     1
102
RTVSPropertyOp9
 70
     1
102
RTVSPropertyOp10
 70
     1
102
RTVSPropertyOp11
 70
     1
102
RTVSPropertyOp12
 70
     1
102
RTVSPropertyOp13
 70
     1
102
RTVSPropertyOp14
 70
     1
102
RTVSPropertyOp15
 70
     1
102
RTVSPropertyOp16
 70
     1
102
RTVSPropertyOp17
 70
     1
102
RTVSPropertyOp18
 70
     1
102
RTVSPropertyOp19
 70
     1
102
RTVSPropertyOp20
 70
     1
102
RTVSPropertyOp21
 70
     1
102
RTVSPropertyOp22
 70
     1
102
RTVSPropertyOp23
 70
     1
102
RTVSPropertyOp24
 70
     1
102
RTVSPropertyOp25
 70
     1
102
RTVSPropertyOp26
 70
     1
102
RTVSPropertyOp27
 70
     1
  0
XRECORD
  5
4684
102
{ACAD_REACTORS
330
4683
102
}
330
4683
100
AcDbXrecord
280
     1
102
RTVSPropertyOp0
 70
     1
102
RTVSPropertyOp1
 70
     1
102
RTVSPropertyOp2
 70
     1
102
RTVSPropertyOp3
 70
     1
102
RTVSPropertyOp4
 70
     1
102
RTVSPropertyOp5
 70
     1
102
RTVSPropertyOp6
 70
     1
102
RTVSPropertyOp7
 70
     1
102
RTVSPropertyOp8
 70
     1
102
RTVSPropertyOp9
 70
     1
102
RTVSPropertyOp10
 70
     1
102
RTVSPropertyOp11
 70
     1
102
RTVSPropertyOp12
 70
     1
102
RTVSPropertyOp13
 70
     1
102
RTVSPropertyOp14
 70
     1
102
RTVSPropertyOp15
 70
     1
102
RTVSPropertyOp16
 70
     1
102
RTVSPropertyOp17
 70
     1
102
RTVSPropertyOp18
 70
     1
102
RTVSPropertyOp19
 70
     1
102
RTVSPropertyOp20
 70
     1
102
RTVSPropertyOp21
 70
     1
102
RTVSPropertyOp22
 70
     1
102
RTVSPropertyOp23
 70
     1
102
RTVSPropertyOp24
 70
     1
102
RTVSPropertyOp25
 70
     1
102
RTVSPropertyOp26
 70
     1
102
RTVSPropertyOp27
 70
     1
  0
ENDSEC
  0
EOF
